Fryderyk Chopin - Nocturne Op 9 No 2 tab

Chopin - Nocturne Op 9 No 2

Capo 5th fret Standard Tuning


|--|------------------------|---------------3-----1-----------||--|3---3---1-3-1---3-----3-|3-0----------------3-----0-4-1-3-||--|--3-3---------3-3-3-3-3-|----00/1-0---0---0-0---1-----0---||3-|--0-----4-----0-----0---|--3--------4-----3---------------||--|1-----1-----1-----0-----|---------------2-----3-3---3-----||--|------------------------|3--------------------------------|
|------------------------|--5-3-1-----------------------||1-----3---------3-----2-|--------4-3-4---------3-----3-||----2-----2-3-3-0-0-3-0-|--3-3-2-------0-2-3-3-3---3-3-||--1-1---0-0---0---------|3-----1-------------0-----0---||--0-----3-----------4---|------------------1-----1-----||1-----2-----3-----0-----|1-----1-----------------------|
|--------------------------------------------||3---3-1-3-1/3/1-0-1-3-1---3---1---1-------1-||--3-3-------------------3-3-----3---3/2/3---||--0-------1-------4-----0-------3-----------||1-1---1---------------1-----0---------------||--------------------------------------------|
|------------------4-3---1-----------||3-------------4-3-----3-----0-4-1-3-||----------5-4-------------1-1---0---||3-4-5-6-5-------------------------1-||------------------------3-3---3-----||3-----------------------------------|
|----------------------------------------------------------------||1-3-1-3-1-3-1-3-1-3-1-3-1-3-1-3-1-3-1-3-0/1/2/3-3-------3-----2-||------------------------------------------------2-2-3-3-0-0-3-0-||------------------------------------------------0-0---0---------||------------------------------------------------------------4---||1---------------------------------------------2-----3-----0-----|
|--5-3-1-----------------------|------------------------||--------4-3-4---------3-------|1-----3---1-1---------1-||--3-3-2-------0-2-3-3-3---2-3-|----2---2-------0-0-0---||3-----1-------------0-----0-3-|----------------------2-||------------------1-----1-----|--3-----3-----3-----3---||1-----------------------------|1-----1-----0-----0-----|
|----------------------------|1-----0-----------------||------------1-------3-----3-|3-0-3---0-3-1-----------||3-3-3-3-2-3---3-3-3-3---3-3-|1-1---0-0-------0-2-----||1-1---4-----------0---3-0---|3---3-3---3-2---0-3-0-0-||----------------1-----1-----|2-----2-----3-3-----0-0-||----------------------------|------------------------|
|------------------------||------------------------||3-0-3-2-0-2-------0-0-2-||--0-0---2-2-3-4-4-3-2-1-||----1-3-1-3-0-4-2-2-1-3-||3-----------1-0-------1-|
|----------------------------------------------------||------3---------------3-1-1---------1---1---------1-||----3-------------1-2-2---------3-----3---3-2-3-----||0-3-----3-2-3-4-3-----1-------0-3---3-----------3---||--------1-----1-------------1-----0-----------------||----------------------------------------------------|
|------------------4-3---1-----------||3-------------4-3-----3-----0-4-1-3-||----------5-4-------------1-1---0---||3-4-5-6-5---------------------------||------------------------3-3---3-----||3-----------------------------------|
|----------------------------------------------------------------||1-3-1-3-1-3-1-3-1-3-1-3-1-3-1-3-1-3-1-3-0/1/2/3-3-------3-----2-||------------------------------------------------2-2-3-3-0-0-3-0-||------------------------------------------------0-----0---------||------------------------------------------------------------4---||1---------------------------------------------2-----3-----0-----|
|--5-4-3-2-1-0---------------------|-----------||--------------4-1---------3-1-----|---3-------||------------------2-----2-2---3-3-|-3-3---2-3-||3-------------------4-1-----------|-0---------||--------------------------------1-|-----1-0-1-||1---------------------1-----------|-----------|
|------------------------|----------------------------||1---1---1-------1-----1-|------------1-------3-----3-||--2-----2-----0-----0-0-|3-3-3-3-2-3---3-3-3-3---3-3-||------0-------------2-2-|1-1---4-----------0---3-0---||----------3-3-----------|----------------1-----1-----||1-----------0-----3-----|----------------------------|
|1-----0-----------------|------------------------||3-0-3---0-3-1-----------|------------------------||1-1---0-0-------0-2-----|3-0-3-2-0-2-------0-0-2-||3---3-3---3-2---0-3-0-0-|--0-0---2-2-3-4-4-3-2-1-||2-----2-----3-3-----0-0-|----1-3-1-3-0-4-2-2-1-3-||------------------------|3-----------1-0-------1-|
|----------------------------------------------------||------3---------------3-1-1---------1---1---------1-||----3-------------1-2-2---------3-----3---3-2-3-----||0-3-----3-2-3-4-3-----1-------0-3---3-----------3---||--------1-----1-------------1-----0-----------------||----------------------------------------------------|
|------------------4-3---1-----------||3-------------4-3-----3-----0-4-1-3-||----------5-4-------------1-1---0---||3-4-5-6-5---------------------------||------------------------3-3---3---3-||3-----------------------------------|
|----------------------------------------------------------------||1-3-1-3-1-3-1-3-1-3-1-3-1-3-1-3-1-3-1-3-0/1/2/3-3-------3-----2-||------------------------------------------------2-2-3-3-0-0-3-0-||------------------------------------------------0-----0---------||------------------------------------------------------------4---||1---------------------------------------------2-----3-----0-----|
|---5-4-3-2-1-0-------------------------|------------------------||---------------4-------------3-1-----3-|------1---1-3-----------||-----------------------0-1-2-----3-3-3-|3-------3---------3-----||3----------------2-3-4---1---------0---|--1-4---4-----0-3-3-0-3-||---------------------------------1-----|1-----1-----1-----1-----||1--------------------------------------|------------------1-----|
|--------------------------------6-5-3-||------------------3---------------3---||3-------5-3-5-3-5-----3-5-3-2-3---3---||--1-4-----4---4-----3-3---------------||1-----1-----------1-------------------||--------------------------------6-----|
|1---0---------------------------108-6-5-3-||------4-------------1---1-----------------||--2---2-------0-2-3---3---3-2-3-----------||--3---3-2-3-4-----0-----------------------||1-----------------1-----------------------||------------------------------------------|
|2-1-0-0-----------------------|------------------------------------||--1-----4-4-3-3-1-------------|----------------------3-----3-----3-||--2-------2---2---3-----3-----|3-----3-5-3-5-3-5-3-5-----3-3-3-3-3-||----------1---1-----0-3-3-0-3-|1-1 4-----4---4---4-----0-3---3-0---||1-----1-----------1-----------|----------------------1-1-----------||------------------------------|------------------------------------|
|----------------------2-6-8-10------1-6-6-5-3-||--------------------4-------------3-----------||3-----------------3---------7-3-3---------3-3-||1-1-3-1-3-1-0-1-4-----------------------------||----------------------------------------3-----||--2-------------------------------------------|
|2-1-0---------6-------3-|2-----------1-----1-||------4-3-----3-----1-1-|----------1-----1---||--2-----2-2-3-3-3---3-0-|2-------2-----2-----||--1-----4-----------2-2-|1-----1-------------||------------------------|----3---------------||1-----2-----3-----0-----|1-1-----------------|
|-2-1-3-0-2-1-3-0-2-1-3-0-2-1-3-0-2-1-3-0-2-1-3-|-----------------------------------------------|-----------------------------------------------|-----------------------------------------------|-----------------------------------------------|-----------------------------------------------
0-2-1-3-0-2-1-3-0-2-1-3-0-2-1-3-0-| ----------------------------------| ----------------------------------| ----------------------------------| ----------------------------------| ----------------------------------|
|5-3-1-0---------------------|---------------------------|6-------------|||--------4-3-1---------------|----3-----3-----3-----3----|------ -------|||--------------2-3-0---------|3-----3-----3-----3-----3--|3-------3-----|||--------------------3-1-----|--3-----3-----3-----3------|---- ---0-----|||--------------------------0-|5-----5-----5-----5-----5--|-- -----1-----|||------------------------3---|---------------------------|--------------||
Tap to rate this tab
 
# A B C D E F G H I J K L M N O P Q R S T U V W X Y Z