Girls - Solitude tab

|------------3-3-----------3------------||----------3-----3-------3---3----------||--------4---------4---4-------4--------| |------5-------------5------------------| |---------------------------------------||---------------------------------------|
|------------5-----------5--------------||----------5---5-------5---5------------||--------6-------6---6-------6----------| |------7-----------7--------------------| |---------------------------------------||---------------------------------------|
|-------------2-----------2-------------||-----------3---3-------3---3-----------||---------2-------2---2-------2---------| |-------4-----------4-------------------| |---------------------------------------||---------------------------------------|
|---------------------------------------||-------------2-----2p3-----------------||-----------3---3------3----------------| |---------4-------4---------------------| |-------2-------------------------------||---------------------------------------|
|------------5-----------5--------------||----------5---5-------5---5------------||--------6-------6---6-------6----------| |------7-----------7--------------------| |---------------------------------------||---------------------------------------|
|---------------10----------------------||------------10----10-------------------||---------11----------11----------------| |------12-------------------------------| |---------------------------------------||---------------------------------------|
|-------------9-------------------------||----------10---10----------------------||--------9---------9--------------------| |------11-------------------------------| |---------------------------------------||---------------------------------------|
|------------7---------7----------------||----------8---8------------------------||--------7-------7-7p9------------------| |------9--------------------------------| |---------------------------------------||---------------------------------------|
Tap to rate this tab
 
# A B C D E F G H I J K L M N O P Q R S T U V W X Y Z