Harmonium - Histoire Sans Paroles tab

Harmonium - Histoire sans paroles
Partition: Patrick Chamberland
Email: sk8_pat13@hotmail.com

E||--------2-----------------|--------3-----------------|B||-----------------3--------|-----------------3--------|G||-----2--------2--------2--|-----0--------0--------0--|D||--0--------0--------0-----|-----------2--------2-----|A||--------------------------|--------------------------|E||--------------------------|--0-----------------------|
--------2-----------2-----|--------2-----------2-----|--------------------------|-----0-----0-----------2--|-----------------3--------|-----------------3--------|-----4-----4--2--------2--|--0-----------------------|--------------------------|--------------4-----------|--2-----------------------|--------------------------|
--------2-----------2-----|--------2-----------2-----|-----------3-----------3--|-----------3-----------3--|-----------------4--------|-----------------4--------|-----4--------4-----------|-----4--------4-----------|--2-----------------------|--2-----------------------|--------------------------|--------------------------|
--------2-----------0-----|--------------------------|-----------0-----------0--|--------3--0--------2--0--|--------------------------|--------------------------|-----2-----------2--------|-----2-----------2--------|--------------2-----------|--2-----------2-----------|--0-----------------------|--------------------------|
--------2-----------0-----|--------------------0-----|-----------2-----------2--|--------3--------------2--|--------------------------|-----------2--------------|-----2-----------2--------|-----2-----------2--------|--0-----------0-----------|--0-----------0-----------|--------------------------|--------------------------|
--------2-----------0-----|--------2----------2-----|-----------3-----------0--|-----------3----------3--|-----2-----------0--------|-------------------------|--0-----------------------|-----4----------4--------|--------------4-----------|--2----------------------|--------------------------|-------------------------|
--------0-----------2-----|--------3-----------0-----|-----------0-----------0--|-----------0-----------0--|--------------------------|--------------------------|-----2-----------2--------|-----2-----------2--------|--------------2-----------|--2-----------2-----------|--0-----------------------|--------------------------|
--------0-----------2-----|--------3-----------0-----|-----------2-----------2--|-----------2-----------2--|--------------------------|--------------------------|-----2-----------2--------|-----2-----------2--------|--0-----------0-----------|--0-----------0-----------|--------------------------|--------------------------|
--------2-----------3-----|--------2-----------2-----|-----------3-----------3--|-----------3--------------|-----2-----------2--------|-----2-----------2--------|--0-----------0-----------|--0-----------0-----------|--------------------------|-----------------------0--|--------------------------|--------------------------|
--------3-----------3-----|--------3-----------3-----|-----------0-----------0--|-----------0--------------|--------------------------|--------------------------|-----0-----------0--------|-----0-----------0--------|--------------2-----------|--------------2-----------|--3-----------------------|--3--------------------3--|
--------2-----------2-----|--------2-----------2-----|--------------------------|-----0-----0-----------2--|-----------------3--------|-----------------3--------|-----4-----4--2--------2--|--0-----------------------|--------------------------|--------------4-----------|--2-----------------------|--------------------------|
--------2-----------2-----|--------2-----------2-----|-----------3-----------3--|-----------3-----------3--|-----------------4--------|-----------------4--------|-----4--------4-----------|-----4--------4-----------|--2-----------------------|--2-----------------------|--------------------------|--------------------------|
--------2-----------0-----|--------------------------|-----------0-----------0--|--------3--0--------2--0--|--------------------------|--------------------------|-----2-----------2--------|-----2-----------2--------|--------------2-----------|--2-----------2-----------|--0-----------------------|--------------------------|
--------2-----------0-----|--------------------0-----|-----------2-----------2--|--------3--------------2--|--------------------------|-----------2--------------|-----2-----------2--------|-----2-----------2--------|--0-----------0-----------|--0-----------0-----------|--------------------------|--------------------------|
--------2-----------0-----|--------2----------2-----|-----------3-----------0--|-----------3----------3--|-----2-----------0--------|-------------------------|--0-----------------------|-----4----------4--------|--------------4-----------|--2----------------------|--------------------------|-------------------------|
--------0-----------2-----|--------3-----------0-----|-----------0-----------0--|-----------0-----------0--|--------------------------|--------------------------|-----2-----------2--------|-----2-----------2--------|--------------2-----------|--2-----------2-----------|--0-----------------------|--------------------------|
--------0-----------2-----|--------3-----------0-----|-----------2-----------2--|-----------2-----------2--|--------------------------|--------------------------|-----2-----------2--------|-----2-----------2--------|--0-----------0-----------|--0-----------0-----------|--------------------------|--------------------------|
--------2-----------3-----|--------2-----------2-----|-----------3-----------3--|-----------3--------------|-----2-----------2--------|-----2-----------2--------|--0-----------0-----------|--0-----------0-----------|--------------------------|-----------------------0--|--------------------------|--------------------------|
--------3-----------3-----|--------3-----------3-----|-----------0-----------0--|-----------0--------------|--------------------------|--------------------------|-----0-----------0--------|-----0-----------0--------|--------------2-----------|--------------2-----------|--3-----------------------|--3--------------------3--|
--------2-----------2-----|--------2-----------2-----|--------------------------|-----0-----0-----------2--|-----------------3--------|-----------------3--------|-----4-----4--2--------2--|--0-----------------------|--------------------------|--------------4-----------|--2-----------------------|--------------------------|
--------2-----------2-----|--------2-----------2-----|-----------3-----------3--|-----------3-----------3--|-----------------4--------|-----------------4--------|-----4--------4-----------|-----4--------4-----------|--2-----------------------|--2-----------------------|--------------------------|--------------------------|
--------2-----------0-----|--------------------------|-----------0-----------0--|--------3--0--------2--0--|--------------------------|--------------------------|-----2-----------2--------|-----2-----------2--------|--------------2-----------|--2-----------2-----------|--0-----------------------|--------------------------|
--------2-----------0-----|--------------------0-----|-----------2-----------2--|--------3--------------2--|--------------------------|-----------2--------------|-----2-----------2--------|-----2-----------2--------|--0-----------0-----------|--0-----------0-----------|--------------------------|--------------------------|
--------2-----------0-----|--------2----------2-----|-----------3-----------0--|-----------3----------3--|-----2-----------0--------|-------------------------|--0-----------------------|-----4----------4--------|--------------4-----------|--2----------------------|--------------------------|-------------------------|
--------0-----------2-----|--------3-----------0-----|-----------0-----------0--|-----------0-----------0--|--------------------------|--------------------------|-----2-----------2--------|-----2-----------2--------|--------------2-----------|--2-----------2-----------|--0-----------------------|--------------------------|
--------5--2-----2--5--2--|--------5--2-----2--5--2--|--------------------------|--------------------------|--------------------------|--------------------------|-----4--------4-----------|-----4--------4-----------|--2-----------------------|--2-----------------------|--------------------------|--------------------------|
-----0--3--0-----0--3--0--|-----0--3--0-----0--3--0--|--------------------------|--------------------------|--------------------------|--------------------------|--------------------------|--------------------------|--3-----------------------|--3-----------------------|--------------3-----------|--------------3-----------|
--------2-----------2-----|--------2-----------2----|-----------0-----------0--|-----------0-------------|--------------------------|-------------------------|-----0-----------0--------|-----0-----------0-------|--------------2-----------|--------------2----------|--3-----------------------|--3----------------------|
--------0-----------0-----|--------2-----------2-----|-----------1-----------1--|-----------1-----------1--|--------------------------|-----2-----------2--------|-----4-----------4--------|--1-----------1-----------|--0-----------0-----------|--------------------------|--------------------------|--------------------------|
--------2-----------0-----|--------2-----------0-----|-----------0-----------0--|-----------0-----------0--|--------------------------|--------------------------|-----2-----------2--------|-----2-----------2--------|--------------2-----------|--------------2-----------|--0-----------------------|--0-----------------------|
--------------------1-----|-------2----5----8----|-----------1-----------1--|--4----1----4----7----|--------2--------2--------|--2----2----5----8----|-----3--------3--------1--|--4----1----4----7----|--------------------------|--2-------------------|--1-----------------------|----------------------|
-----------------2------|------------------|------------------||--------------0---------|------------------|------------------||-----------0------------|------------------|------------------||--------2---------------|------------------|------------------||-----2------------------|------------------|------------------||--0---------------------|------------------|------------------||
Tap to rate this tab
 
# A B C D E F G H I J K L M N O P Q R S T U V W X Y Z