Harmonium - Pour Un Instant tab

Harmonium - Pour Un Instant
Partition: Patrick Chamberland
Email: sk8_pat13@hotmail.com


capo 3ieme frettes Pour les deux Guitares


Srege Fiori:

E||------------------|------------------|------------------|B||------------------|------------------|------------------|G||------------------|------------------|------------------|D||------------------|------------------|------------------|A||------------------|------------------|------------------|E||------------------|------------------|------------------|
------------------|------------------|------------------|------------------|------------------|------------------|------------------|------------------|------------------|------------------|------------------|------------------|------------------|------------------|------------------|------------------|------------------|------------------|
------------------|------------------|------------------|------------------|------------------|------------------|------------------|------------------|------------------|------------------|------------------|------------------|------------------|------------------|------------------|------------------|------------------|------------------|
------------------|-------2-------2----0--|--0----------------|------------------|-------3-------3----2--|--2----------------|------------------|-------2-------2----2--|--2----------------|------------------|--0---------0-------0--|--0----------------|------------------|-----------------------|-------------------|------------------|-----------------------|-------------------|
-------3-------3----2--|------------------|-------3-------3----3--|------------------|-------4-------4----2--|------------------|--0---------0-------0--|------------------|-----------------------|------------------|-----------------------|------------------|
-------2-------2----0--|--0----------------|-------3-------3----2--|--2----------------|-------2-------2----2--|--2----------------|--0---------0-------0--|--0----------------|-----------------------|-------------------|-----------------------|-------------------|
-------3-------3----2--|------------------|-------3-------3----3--|------------------|-------4-------4----2--|------------------|--0---------0-------0--|------------------|-----------------------|------------------|-----------------------|------------------|
------------------10---------|--------------------10---------|-------10----------------10--|---------10---------10-----10--|--------------11-------------|-----11---------11-------------|--0--------0----------0------|--0----------0----------0------|-----------------------------|-------------------------------|-----------------------------|-------------------------------|
-----------------10--------|---------10--------9----------|--------8---------------8--|-----10------------10-----10--|-----9--------9------------|-----9----------9-------------|---------------------------|------------------------------|---------------------------|--0----------0---------0------|--0--------0---------0-----|------------------------------|
------------------10---------|--------------------10---------|-------10----------------10--|---------10---------10-----10--|--------------11-------------|-----11---------11-------------|--0--------0----------0------|--0----------0----------0------|-----------------------------|-------------------------------|-----------------------------|-------------------------------|
-----------------10--------|---------10--------9----------|--------8---------------8--|-----10------------10-----10--|-----9--------9------------|-----9----------9-------------|---------------------------|------------------------------|---------------------------|--0----------0---------0------|--0--------0---------0-----|------------------------------|
-------2-------2----2--|-------0-------0----0--|-------3-------3----3--|-------3-------3----3--|-------2-------2----2--|-------0-------0----0--|--0---------0----------|--2---------2----------|-----------------------|-----------------------|-----------------------|-----------------------|
-------2-------2----2--|-------3-------3----3--|-------2-------2----2--|-------3-------3----3--|-------2-------2----2--|-------0-------0----0--|--4---------4----------|--0---------0----------|-----------------------|-----------------------|-----------------------|-----------------------|
-------2-------2----2--|-------0-------0----0--|-------3-------3----3--|-------3-------3----3--|-------2-------2----2--|-------0-------0----0--|--0---------0----------|--2---------2----------|-----------------------|-----------------------|-----------------------|-----------------------|
-------2-------2----2--|-------3-------3----3--|-------2-------2----2--|-------3-------3----3--|-------2-------2----2--|-------0-------0----0--|--4---------4----------|--0---------0----------|-----------------------|-----------------------|-----------------------|-----------------------|
---------------------|---------------------|--5------------------|--5------------------|---------6-----------|---------6-----------|----------------7----|----------------7----|---------------------|---------------------|---------------------|---------------------|
---------------------|---------------------|--5------------------|--5------------------|---------6-----------|---------6-----------|----------------7----|----------------7----|---------------------|---------------------|---------------------|---------------------|
---------------------|---------------------|--5------------------|--5------------------|---------6-----------|---------6-----------|----------------7----|----------------7----|---------------------|---------------------|---------------------|---------------------|
---------------------|---------------------|--5------------------|--5------------------|---------6-----------|---------6-----------|----------------7----|----------------7----|---------------------|---------------------|---------------------|---------------------|
------------------10---------|--------------------10---------|-------10----------------10--|---------10---------10-----10--|--------------11-------------|-----11---------11-------------|--0--------0----------0------|--0----------0----------0------|-----------------------------|-------------------------------|-----------------------------|-------------------------------|
-----------------10--------|---------10--------9----------|--------8---------------8--|-----10------------10-----10--|-----9--------9------------|-----9----------9-------------|---------------------------|------------------------------|---------------------------|--0----------0---------0------|--0--------0---------0-----|------------------------------|
------------------10---------|--------------------10---------|-------10----------------10--|---------10---------10-----10--|--------------11-------------|-----11---------11-------------|--0--------0----------0------|--0----------0----------0------|-----------------------------|-------------------------------|-----------------------------|-------------------------------|
-----------------10--------|---------10--------9----------|--------8---------------8--|-----10------------10-----10--|-----9--------9------------|-----9----------9-------------|---------------------------|------------------------------|---------------------------|--0----------0---------0------|--0--------0---------0-----|------------------------------|
-------2-------2----2--|-------0-------0----0--|-------3-------3----3--|-------3-------3----3--|-------2-------2----2--|-------0-------0----0--|--0---------0----------|--2---------2----------|-----------------------|-----------------------|-----------------------|-----------------------|
-------2-------2----2--|-------3-------3----3--|-------2-------2----2--|-------3-------3----3--|-------2-------2----2--|-------0-------0----0--|--4---------4----------|--0---------0----------|-----------------------|-----------------------|-----------------------|-----------------------|
-------2-------2----2--|-------0-------0----0--|-------3-------3----3--|-------3-------3----3--|-------2-------2----2--|-------0-------0----0--|--0---------0----------|--2---------2----------|-----------------------|-----------------------|-----------------------|-----------------------|
-------2-------2----2--|-------3-------3----3--|-------2-------2----2--|-------3-------3----3--|-------2-------2----2--|-------0-------0----0--|--4---------4----------|--0---------0----------|-----------------------|-----------------------|-----------------------|-----------------------|
---------------------|---------------------|--5------------------|--5------------------|---------6-----------|---------6-----------|----------------7----|----------------7----|---------------------|---------------------|---------------------|---------------------|
---------------------|---------------------|--5------------------|--5------------------|---------6-----------|---------6-----------|----------------7----|----------------7----|---------------------|---------------------|---------------------|---------------------|
---------------------|---------------------|--5------------------|--5------------------|---------6-----------|---------6-----------|----------------7----|----------------7----|---------------------|---------------------|---------------------|---------------------|
---------------------|---------------------|--5------------------|--5------------------|---------6-----------|---------6-----------|----------------7----|----------------7----|---------------------|---------------------|---------------------|---------------------|
------------------------|------------------------|------------------------|------------------------|-------2-------------2--|--2----2-------------2--|--0---------0--2--4-----|------------0--2--4-----|------------------------|------------------------|------------------------|------------------------|
-----------------------|------------------------|-----------------------|------------------------|--2--0---------0-------|------------------------|----------4---------2--|--2----2----------0--0--|-----------------------|------------0--2--------|-----------------------|------------------------|
------------------------|------------------------|------------------------|------------------------|-------2-------------2--|--2----2-------------2--|--0---------0--2--4-----|------------0--2--4-----|------------------------|------------------------|------------------------|------------------------|
-----------------------|------------------------|-----------------------|------------------------|--2--0---------0-------|------------------------|----------4---------2--|--2----2----------0--0--|-----------------------|------------0--2--------|-----------------------|------------------------|
------2h3h2------------|------2h3h2--5------5--|-------------3------3--|-----------------------|-----------------------|-----------------------|-----------------------|-----------------------|-----------------------|-----------------------|-----------------------|-----------------------|
------2h3h2------------|----5-7-5--3-5-3------------|-------------3------3--|----7-8-7--5-7-5--7-8-7--5--|-----------------------|------------------7-9-7--4--|-----------------------|----------------------------|-----------------------|----------------------------|-----------------------|----------------------------|
-----------2--3--2-----|------------2--3--2--5--|--3-----------------3--|--3----3----------------|--2--------------------|------------------------|-----------------------|------------------------|-----------------------|------------------------|-----------------------|------------------------|
--5----5----2--3--2-----|----5-7-5--3-5-3------------|---------------------3--|----7-8-7--5-7-5--7-8-7--5--|------------------------|------------------7-9-7--4--|------------------------|----------------------------|------------------------|----------------------------|------------------------|----------------------------|
---------------------|---------------------|--5------------------|--5------------------|---------6-----------|---------6-----------|----------------7----|----------------7----|---------------------|---------------------|---------------------|---------------------|
---------------------|---------------------|--5------------------|--5------------------|---------6-----------|---------6-----------|----------------7----|----------------7----|---------------------|---------------------|---------------------|---------------------|
---------------------|---------------------|--5------------------|--5------------------|---------6-----------|---------6-----------|----------------7----|----------------7----|---------------------|---------------------|---------------------|---------------------|
---------------------|---------------------|--5------------------|--5------------------|---------6-----------|---------6-----------|----------------7----|----------------7----|---------------------|---------------------|---------------------|---------------------|
------------------10---------|--------------------10---------|-------10----------------10--|---------10---------10-----10--|--------------11-------------|-----11---------11-------------|--0--------0----------0------|--0----------0----------0------|-----------------------------|-------------------------------|-----------------------------|-------------------------------|
-----------------10--------|---------10--------9----------|--------8---------------8--|-----10------------10-----10--|-----9--------9------------|-----9----------9-------------|---------------------------|------------------------------|---------------------------|--0----------0---------0------|--0--------0---------0-----|------------------------------|
------------------10---------|--------------------10---------|-------10----------------10--|---------10---------10-----10--|--------------11-------------|-----11---------11-------------|--0--------0----------0------|--0----------0----------0------|-----------------------------|-------------------------------|-----------------------------|-------------------------------|
-----------------10--------|---------10--------9----------|--------8---------------8--|-----10------------10-----10--|-----9--------9------------|-----9----------9-------------|---------------------------|------------------------------|---------------------------|--0----------0---------0------|--0--------0---------0-----|------------------------------|
------5--2--3--5----5--|------5--2--3--5----5--|------7--3--5--7----7--|------7--3--5--7----7--|-----------------------|-----------------------|-----------------------|-----------------------|-----------------------|-----------------------|-----------------------|-----------------------|
--7----5----3----2----|--0----0----2----3----|--8----7----5----5----|--2----2----3----5----|----------------------|----------------------|----------------------|----------------------|----------------------|----------------------|----------------------|----------------------|
--5----5-----7--5--------|--5----------------||--7----7--7--7--7--8--7--|--7----------------||----------7--------7-----|--7----------------||-------------------------|--0----------------||-------------------------|-------------------||-------------------------|-------------------||
Michel Normandeau:
E||------------------|-------2--------2-----2--|B||------------------|-------3--------3-----3--|G||------------------|--2----------2-----------|D||------------------|--0-------0--------0-----|A||------------------|-------------------------|E||------------------|-------------------------|
--------2-----------------|--------0-----------------|--------3--------3-----3--|--------3--------3-----3--|-----2--------2-----------|--------0--------0-----0--|--0--------0--------0-----|-----2--------2-----2-----|--------------------------|--------------------------|--------------------------|--0--------0--------------|
--------0-----------------|-------2--------2-----2--|--------3--------2-----0--|-------3--------3-----3--|-----0--------0--0-----0--|--2----------2-----------|--2--------2--------2-----|--0-------0--------0-----|-----------0--------0-----|-------------------------|--------------------------|-------------------------|
--------2-----------------|--------0-----------------|--------3--------3-----3--|--------3--------3-----3--|-----2--------2-----------|--------0--------0-----0--|--0--------0--------0-----|-----2--------2-----2-----|--------------------------|--------------------------|--------------------------|--0--------0--------------|
--------0-----------------|--2----------------|--------3--------2-----0--|--3----------------|-----0--------0--0-----0--|--2----------------|--2--------2--------2-----|--0----------------|-----------0--------0-----|-------------------|--------------------------|-------------------|
--------2--------2-----0--|--------0--------0-----0--|--------3--------3-----2--|--------2--------2-----2--|-----2--------2--------2--|-----2--------2--------2--|--0--------0--------0-----|--0--------0--------0-----|--------------------------|--------------------------|--------------------------|--------------------------|
--------3--------3-----3--|--------2--------2-----2--|--------3--------3-----3--|--------3--------3-----3--|-----4--------4--------4--|-----2--------2--------2--|--0--------0--------0-----|--0--------0--------0-----|--------------------------|--------------------------|--------------------------|--------------------------|
--------2--------2-----0--|--------0--------0-----0--|--------3--------3-----2--|--------2--------2-----2--|-----2--------2--------2--|-----2--------2--------2--|--0--------0--------0-----|--0--------0--------0-----|--------------------------|--------------------------|--------------------------|--------------------------|
--------3--------3-----3--|--------3h-2----------2--|--------3--------3-----3--|--------3-------------3--|-----4--------4--------4--|-----2-------------2-----|--0--------0--------0-----|--0-----------0----0-----|--------------------------|-------------------------|--------------------------|-------------------------|
-------2--------2-----2--|--------2-----------------|-------3--------3-----3--|--------3--------3-----3--|--2----------2-----------|-----2--------2-----------|--0-------0--------0-----|--0--------0--------0-----|-------------------------|--------------------------|-------------------------|--------------------------|
--------0-----------------|--------0-----------------|--------3--------3-----3--|--------3--------2-----0--|--------0--------0-----0--|-----0--------0--0-----0--|-----2--------2-----2-----|--2--------2--------2-----|--------------------------|-----------0--------0-----|--0--------0--------------|--------------------------|
-------2--------2-----2--|--------2-----------------|-------3--------3-----3--|--------3--------3-----3--|--2----------2-----------|-----2--------2-----------|--0-------0--------0-----|--0--------0--------0-----|-------------------------|--------------------------|-------------------------|--------------------------|
--------0-----------------|--------0-----------------|--------3--------3-----3--|--------3--------2-----0--|--------0--------0-----0--|-----0--------0--0-----0--|-----2--------2-----2-----|--2--------2--------2-----|--------------------------|-----------0--------0-----|--0--------0--------------|--------------------------|
-------2--------2-----2--|--------0-----------------|-------3--------3-----3--|--------3--------3-----3--|--2----------2-----------|--------0--------0-----0--|--0-------0--------0-----|-----2--------2-----2-----|-------------------------|--------------------------|-------------------------|--0--------0--------------|
--------2--------2-----2--|--------3--------3-----3--|--------2--------2-----2--|--------3--------3-----3--|-----2--2-----2--2-----2--|-----0--0-----0--0-----0--|-----4--------4--------4--|-----0--------0-----------|--------------------4-----|--------------------------|--2--------2--------2-----|--3--------3--------3-----|
-------2--------2-----2--|--------0-----------------|-------3--------3-----3--|--------3--------3-----3--|--2----------2-----------|--------0--------0-----0--|--0-------0--------0-----|-----2--------2-----2-----|-------------------------|--------------------------|-------------------------|--0--------0--------------|
--------2--------2-----2--|--------3--------3-----3--|--------2--------2-----2--|--------3--------3-----3--|-----2--2-----2--2-----2--|-----0--0-----0--0-----0--|-----4--------4--------4--|-----0--------0-----------|--------------------4-----|--------------------------|--2--------2--------2-----|--3--------3--------3-----|
--------0--------0-----0--|--------0--------0-----0--|--------3--------3-----3--|--------0--------0-----0--|-----0--0-----0--0-----0--|-----0--0-----0--0-----0--|-----2--------2-----2-----|-----2--------2-----2-----|--0--------0--------0-----|--0--------0--------0-----|--------------------------|--------------------------|
--------0--------0-----0--|--------0--------0-----0--|--------3--------3-----3--|--------2--------2-----2--|-----0--0-----0--0-----0--|-----0--0-----0--0-----0--|-----2--------2-----2-----|-----2--------2-----2-----|--0--------0--------0-----|--0--------0--------0-----|--------------------------|--------------------------|
--------0--------0-----0--|--------0--------0-----0--|--------3--------3-----3--|--------0--------0-----0--|-----0--0-----0--0-----0--|-----0--0-----0--0-----0--|-----2--------2-----2-----|-----2--------2-----2-----|--0--------0--------0-----|--0--------0--------0-----|--------------------------|--------------------------|
--------0--------0-----0--|--------0--------0-----0--|--------3--------3-----3--|--------2--------2-----2--|-----0--0-----0--0-----0--|-----0--0-----0--0-----0--|-----2--------2-----2-----|-----2--------2-----2-----|--0--------0--------0-----|--0--------0--------0-----|--------------------------|--------------------------|
-------2--------2-----2--|--------2-----------------|-------3--------3-----3--|--------3--------3-----3--|--2----------2-----------|-----2--------2-----------|--0-------0--------0-----|--0--------0--------0-----|-------------------------|--------------------------|-------------------------|--------------------------|
--------0-----------------|--------0-----------------|--------3--------3-----3--|--------3--------2-----0--|--------0--------0-----0--|-----0--------0--0-----0--|-----2--------2-----2-----|--2--------2--------2-----|--------------------------|-----------0--------0-----|--0--------0--------------|--------------------------|
-------2--------2-----2--|--------2-----------------|-------3--------3-----3--|--------3--------3-----3--|--2----------2-----------|-----2--------2-----------|--0-------0--------0-----|--0--------0--------0-----|-------------------------|--------------------------|-------------------------|--------------------------|
--------0-----------------|--------0-----------------|--------3--------3-----3--|--------3--------2-----0--|--------0--------0-----0--|-----0--------0--0-----0--|-----2--------2-----2-----|--2--------2--------2-----|--------------------------|-----------0--------0-----|--0--------0--------------|--------------------------|
-------2--------2-----2--|--------0-----------------|-------3--------3-----3--|--------3--------3-----3--|--2----------2-----------|--------0--------0-----0--|--0-------0--------0-----|-----2--------2-----2-----|-------------------------|--------------------------|-------------------------|--0--------0--------------|
--------2--------2-----2--|--------3--------3-----3--|--------2--------2-----2--|--------3--------3-----3--|-----2--2-----2--2-----2--|-----0--0-----0--0-----0--|-----4--------4--------4--|-----0--------0-----------|--------------------4-----|--------------------------|--2--------2--------2-----|--3--------3--------3-----|
-------2--------2-----2--|--------0-----------------|-------3--------3-----3--|--------3--------3-----3--|--2----------2-----------|--------0--------0-----0--|--0-------0--------0-----|-----2--------2-----2-----|-------------------------|--------------------------|-------------------------|--0--------0--------------|
--------2--------2-----2--|--------3--------3-----3--|--------2--------2-----2--|--------3--------3-----3--|-----2--2-----2--2-----2--|-----0--0-----0--0-----0--|-----4--------4--------4--|-----0--------0-----------|--------------------4-----|--------------------------|--2--------2--------2-----|--3--------3--------3-----|
--------0--------0-----0--|--------0--------0-----0--|--------3--------3-----3--|--------0--------0-----0--|-----0--0-----0--0-----0--|-----0--0-----0--0-----0--|-----2--------2-----2-----|-----2--------2-----2-----|--0--------0--------0-----|--0--------0--------0-----|--------------------------|--------------------------|
--------0--------0-----0--|--------0--------0-----0--|--------3--------3-----3--|--------2--------2-----2--|-----0--0-----0--0-----0--|-----0--0-----0--0-----0--|-----2--------2-----2-----|-----2--------2-----2-----|--0--------0--------0-----|--0--------0--------0-----|--------------------------|--------------------------|
--------0--------0-----0--|--------0--------0-----0--|--------3--------3-----3--|--------0--------0-----0--|-----0--0-----0--0-----0--|-----0--0-----0--0-----0--|-----2--------2-----2-----|-----2--------2-----2-----|--0--------0--------0-----|--0--------0--------0-----|--------------------------|--------------------------|
--------0--------0-----0--|--------0--------0-----0--|--------3--------3-----3--|--------2--------2-----2--|-----0--0-----0--0-----0--|-----0--0-----0--0-----0--|-----2--------2-----2-----|-----2--------2-----2-----|--0--------0--------0-----|--0--------0--------0-----|--------------------------|--------------------------|
-------2--------2-----2--|--------2-----------------|-------3--------3-----3--|--------3--------3-----3--|--2----------2-----------|-----2--------2-----------|--0-------0--------0-----|--0--------0--------0-----|-------------------------|--------------------------|-------------------------|--------------------------|
--------0-----------------|--------0-----------------|--------3--------3-----3--|--------3--------2-----0--|--------0--------0-----0--|-----0--------0--0-----0--|-----2--------2-----2-----|--2--------2--------2-----|--------------------------|-----------0--------0-----|--0--------0--------------|--------------------------|
-------2--------2-----2--|--------2-----------------|-------3--------3-----3--|--------3--------3-----3--|--2----------2-----------|-----2--------2-----------|--0-------0--------0-----|--0--------0--------0-----|-------------------------|--------------------------|-------------------------|--------------------------|
--------0-----------------|--------0-----------------|--------3--------3-----3--|--------3--------2-----0--|--------0--------0-----0--|-----0--------0--0-----0--|-----2--------2-----2-----|--2--------2--------2-----|--------------------------|-----------0--------0-----|--0--------0--------------|--------------------------|
-------2--------2-----2--|--------0-----------------|-------3--------3-----3--|--------3--------3-----3--|--2----------2-----------|--------0--------0-----0--|--0-------0--------0-----|-----2--------2-----2-----|-------------------------|--------------------------|-------------------------|--0--------0--------------|
--------2--------2-----2--|--------3--------3-----3--|--------2--------2-----2--|--------3--------3-----3--|-----2--2-----2--2-----2--|-----0--0-----0--0-----0--|-----4--------4--------4--|-----0--------0-----------|--------------------4-----|--------------------------|--2--------2--------2-----|--3--------3--------3-----|
-------2--------2-----2--|--------0-----------------|-------3--------3-----3--|--------3--------3-----3--|--2----------2-----------|--------0--------0-----0--|--0-------0--------0-----|-----2--------2-----2-----|-------------------------|--------------------------|-------------------------|--0--------0--------------|
--------2--------2-----2--|--------3--------3-----3--|--------2--------2-----2--|--------3--------3-----3--|-----2--2-----2--2-----2--|-----0--0-----0--0-----0--|-----4--------4--------4--|-----0--------0-----------|--------------------4-----|--------------------------|--2--------2--------2-----|--3--------3--------3-----|
--------0--------0-----0--|--------0--------0-----0--|--------3--------3-----3--|--------0--------0-----0--|-----0--0-----0--0-----0--|-----0--0-----0--0-----0--|-----2--------2-----2-----|-----2--------2-----2-----|--0--------0--------0-----|--0--------0--------0-----|--------------------------|--------------------------|
--------0--------0-----0--|--------0--------0-----0--|--------3--------3-----3--|--------2--------2-----2--|-----0--0-----0--0-----0--|-----0--0-----0--0-----0--|-----2--------2-----2-----|-----2--------2-----2-----|--0--------0--------0-----|--0--------0--------0-----|--------------------------|--------------------------|
--------0--------0-----0--|--------0--------0-----0--|--------3--------3-----3--|--------0--------0-----0--|-----0--0-----0--0-----0--|-----0--0-----0--0-----0--|-----2--------2-----2-----|-----2--------2-----2-----|--0--------0--------0-----|--0--------0--------0-----|--------------------------|--------------------------|
--------0--------0-----0--|--------0--------0-----0--|--------3--------3-----3--|--------2--------2-----2--|-----0--0-----0--0-----0--|-----0--0-----0--0-----0--|-----2--------2-----2-----|-----2--------2-----2-----|--0--------0--------0-----|--0--------0--------0-----|--------------------------|--------------------------|
-------2--------2-----2--|--------2-----------------|-------3--------3-----3--|--------3--------3-----3--|--2----------2-----------|-----2--------2-----------|--0-------0--------0-----|--0--------0--------0-----|-------------------------|--------------------------|-------------------------|--------------------------|
--------0-----------------|--------0-----------------|--------3--------3-----3--|--------3--------2-----0--|--------0--------0-----0--|-----0--------0--0-----0--|-----2--------2-----2-----|--2--------2--------2-----|--------------------------|-----------0--------0-----|--0--------0--------------|--------------------------|
-------2--------2-----2--|--------2-----------------|-------3--------3-----3--|--------3--------3-----3--|--2----------2-----------|-----2--------2-----------|--0-------0--------0-----|--0--------0--------0-----|-------------------------|--------------------------|-------------------------|--------------------------|
--------0-----------------|--------0-----------------|--------3--------3-----3--|--------3--------2-----0--|--------0--------0-----0--|-----0--------0--0-----0--|-----2--------2-----2-----|--2--------2--------2-----|--------------------------|-----------0--------0-----|--0--------0--------------|--------------------------|
-------2--------2-----2--|--------2-----------------|-------3--------3-----3--|--------3--------3-----3--|--2----------2-----------|-----2--------2-----------|--0-------0--------0-----|--0--------0--------0-----|-------------------------|--------------------------|-------------------------|--------------------------|
--------0-----------------|--------0-----------------|--------3--------3-----3--|--------3--------2-----0--|--------0--------0-----0--|-----0--------0--0-----0--|-----2--------2-----2-----|--2--------2--------2-----|--------------------------|-----------0--------0-----|--0--------0--------------|--------------------------|
--------2-----3--2--0-----|--2----------------||-----3--3-----3--3-----3--|--3----------------||-----2-----2--------------|--2----------------||--0--------0--------------|--0----------------||--------------------------|--0----------------||--------------------------|-------------------||
Tap to rate this tab
 
# A B C D E F G H I J K L M N O P Q R S T U V W X Y Z