Holiday - Let It Snow tab

----------------------------------------------------------------------------
			         Let it Snow
----------------------------------------------------------------------------

Tabbed by: Dave S. 
Email: Prime-Prine@hotmail.com

Tuning: Standard

Artist:
Album:
Year:


Gtr I (E A D G B E) 
Gtr II (E A D G B E) 

 4/4
  Gtr I

|-----1---------0-----1------1------1------1-----0-----0----||-----1---------1-----1------1------1------0-----1-----1----||-----2---------3-----2------2------2------1-----3-----3----||-----3---------2-----3------3------3---0--------2-----2----||----------3-------------3--------------------3-------------||-1----------------1-------------1------------------3-------|
| Gtr II|-8-8-6--5--------------------------------------------------||----------8-6-------------8---6-8--6-5---------------------||---------------5-----5--5--------------5-------------------||-----------------------------------------------------------||-----------------------------------------------------------||-----------------------------------------------------------|
|-------3------2------3-------3-----0-------0-----1-----1----||-------3------1------3-------3-----1-------1-----1-----1----||-------3------2------3-------3-----3-------3-----2-----2----||-------5--0----------5-------5-----2-------2-----3-----3----||-------------------------5------3-------------------3-------||--3--------------3---------------------3------1-------------|
|
|-10-10-8--6-------------12--10--8--8-6-5-5------------------||-------------10--8-------------------------8--6-------------||------------------------------------------------------------||------------------------------------------------------------||------------------------------------------------------------||------------------------------------------------------------|
|-----0--------0------0-------0------1-----1-----0-----0----||-----1--------1------1-------1------3-----0-----1-----1----||-----0--------0------0-------0------2-----0-----0-----0----||-----2--------2------2-------2---0--------0-----2-----2----||-3---------------3---------------------------3-------------||---------3---------------3-------------3-----------3-------|
|
|---5-----8-------------------------------------------------||-8---8-5---8-------6-5---5-----5---------------------------||-----------------------7---7-5-----------------------------||-----------------------------------------------------------||-----------------------------------------------------------||-----------------------------------------------------------|
|-----0-------0-----0------0------2------1-----0-----0----||-----1-------1-----1------1------1------0-----1-----1----||-----0-------0-----0------0------2------0-----3-----3----||-----2-------2-----2------2---0---------0-----2-----2----||-3--------------3--------------------------3-------------||---------3------------3--------------3-----------3-------|
|
|---5-----8--------------7-5-7----5-7-8-------------------||-8---8-5---8------------------8--------------------------||---------------------------------------------------------||---------------------------------------------------------||---------------------------------------------------------||---------------------------------------------------------|
|----1-----0--|----1-----1--|----1-----1--|----0-----0--||----1-----1--|----1-----1--|----1-----0--|----1-----1--||----2-----3--|----2-----2--|----2-----1--|----3-----3--||----3-----2--|----3-----3--|----3--0-----|----2-----2--||-------3-----|-------3-----|-------------|-3-----------||-1-----------|-1-----------|-1-----------|-------3-----|
|----3-----2--|----3-----3--|----0-----0--|-1----||----3-----1--|----3-----3--|----1-----1--|-1----||----3-----2--|----3-----3--|----3-----3--|-2----||----5--0-----|----5-----5--|----2-----2--|-3----||-------------|-------5-----|-3-----------|-3----||-3-----------|-3-----------|-------3-----|-1----|
| / slide up | \ slide down | h hammer-on | p pull-off | ~ vibrato | + harmonic | x Mute note ===========================================================================
Tap to rate this tab
 
# A B C D E F G H I J K L M N O P Q R S T U V W X Y Z