Incubus - Wish You Were Here[100% Correct] tab

I'm tired of seeing all these tabs are 100% wrong. So here it is, the exact way to play Wish You Were Here by incubus.

Song: Wish You Were Here
Band: Incubus
Album: Morning View
Tuning: Standard
Transcribed by: Matt Hritz
Email: abyss1212@hotmail.com

If you find anything wrong with this, email me with your proof. Cheers.

Intro: Fig. 1light distortion|--------------------------------------------------||--------------------------------------------------||---4-4-4-0-4-4-4-4-4-0----------------2-2-2-2-0-0-||---2-2-2-2-2-2-2-2-2-0-4-4-4/7-7-7--2-2-2-2-2-2-0-||-0---------2-----------4-4-4/7-7-7--2-2-2-0-0-0---||-----------0-----------2-2-2/5-5-5--0-------------|
|--------------------------------------------------||--------------------------------------------------||---4-4-4-0-4-4-4-4-4-0-------------------9/11-11--||---2-2-2-2-2-2-2-2-2-0-4-4-4/7-7-7--2-0--x-----x--||-0---------2-----------4-4-4/7-7-7--2-0--7/9---9--||-----------0-----------2-2-2/5-5-5--0-------------|
Fig. 2 Distortion
|--------------------------------------------------||--------------------------------------------------||-4-4-4-4-0-4-4-4-4-4-0----------------2-2-2-2-0-0-||-2-2-2-2-2-2-2-2-2-2-0-4-4-4/7-7-7--2-2-2-2-2-2-0-||-0---------2-----------4-4-4/7-7-7--2-2-2-2-2-0---||-----------0-----------2-2-2/5-5-5--0---0-0-0-----|
|--------------------------------------------------||--------------------------------------------------||-4-4-4-4-0-4-4-4-4-4-0-------------------9/11-11--||-2-2-2-2-2-2-2-2-2-2-0-4-4-4/7-7-7--2-0--x-----x--||-0---------2-----------4-4-4/7-7-7--2-0--7/9---9--||-----------0-----------2-2-2/5-5-5--0-------------|
|--------------------------------------------------||--------------------------------------------------||-4-4-4-4-0-4-4-4-4-4-0----------------2-2-2-2-0-0-||-2-2-2-2-2-2-2-2-2-2-0-4-4-4/7-7-7--2-2-2-2-2-2-0-||-0---------2-----------4-4-4/7-7-7--2-2-2-2-2-0---||-----------0-----------2-2-2/5-5-5--0---0-0-0-----|
|--------------------------------------------------||--------------------------------------------------||-4-4-4-4-0-4-4-4-4-4-0----------------2-2-2-2-0-0-||-2-2-2-2-2-2-2-2-2-2-0-4-4-4/7-7-7--2-2-2-2-2-2-0-||-0---------2-----------4-4-4/7-7-7--2-2-2-2-2-0---||-----------0-----------2-2-2/5-5-5--0---0-0-0-----|
Verse: Fig 1 light distortion, delay
|-----0-----------------------12----------||---7---7---7---------0-----------9--10---||-9-------9---------------------------9---||--------------11--9-----9h11-------------||-----------------------------------------||-----------------------------------------|
|-----0--------------------------------------0-0-0-0-|---7---7---7---------0---------9------------0-0-0-0-|-9-------9-------------------9---9----11-9----------|--------------11--9-----9h11-------11---------------|----------------------------------------------------|----------------------------------------------------
Chorus: Fig 1 Distortion
|--------------------------------------------------||--------------------------------------------------||-4-4-4-4-0-4-4-4-4-4-0----------------2-2-2-2-0-0-||-2-2-2-2-2-2-2-2-2-2-0-4-4-4/7-7-7--2-2-2-2-2-2-0-||-0---------2-----------4-4-4/7-7-7--2-2-2-2-2-0---||-----------0-----------2-2-2/5-5-5--0---0-0-0-----|
|--------------------------------------------------||--------------------------------------------------||-4-4-4-4-0-4-4-4-4-4-0----------------2-2-2-2-0-0-||-2-2-2-2-2-2-2-2-2-2-0-4-4-4/7-7-7--2-2-2-2-2-2-0-||-0---------2-----------4-4-4/7-7-7--2-2-2-2-2-0---||-----------0-----------2-2-2/5-5-5--0---0-0-0-----|
|--------------------------------------------------||--------------------------------------------------||-4-4-4-4-0-4-4-4-4-4-0----------------2-2-2-2-0-0-||-2-2-2-2-2-2-2-2-2-2-0-4-4-4/7-7-7--2-2-2-2-2-2-0-||-0---------2-----------4-4-4/7-7-7--2-2-2-2-2-0---||-----------0-----------2-2-2/5-5-5--0---0-0-0-----|
|--------------------------------------------------||--------------------------------------------------||-4-4-4-4-0-4-4-4-4-4-0----------------2-2-2-2-0-0-||-2-2-2-2-2-2-2-2-2-2-0-4-4-4/7-7-7--2-2-2-2-2-2-0-||-0---------2-----------4-4-4/7-7-7--2-2-2-2-2-0---||-----------0-----------2-2-2/5-5-5--0---0-0-0-----|
Bridge: Fig 1
|-----0-0-----0-0-----0-0-0-----0-0-----0-0-----0-0-----0-0|-----0-0-----0-0-----0-0-0-----0-0-----0-0-----0-0-----0-0|-6-6-----6-6-----6/9-9-9-9-9-9-----7-7-----7-7-----7-7----|-x-x-----x-x-----x---x-x-x-x-x-----x-x-----x-x-----x-x----|-4-4-----4-4-----4/7-7-7-7-7-7-----5-5-----5-5-----5-5----|----------------------------------------------------------
|-----0-0-----0-0-----0-0-0-----0-0-----0-0-----0-0-----0-0|-----0-0-----0-0-----0-0-0-----0-0-----0-0-----0-0-----0-0|-6-6-----6-6-----6/9-9-9-9-9-9-----7-7-----7-7-----7-7----|-x-x-----x-x-----x---x-x-x-x-x-----x-x-----x-x-----x-x----|-4-4-----4-4-----4/7-7-7-7-7-7-----5-5-----5-5-----5-5----|----------------------------------------------------------
|-----0-0-----0-0-----0-0-0-----0-0-----0-0----------------|-----0-0-----0-0-----0-0-0-----0-0-----0-0----------------|-6-6-----6-6-----6/9-9-9-9-9-9-----7-7-----7/12-12-12-12--|-x-x-----x-x-----x---x-x-x-x-x-----x-x-----x-----x--x--x--|-4-4-----4-4-----4/7-7-7-7-7-7-----5-5-----5/10-10-10-10--|----------------------------------------------------------
|-----0-0-----0-0-----0-0-0-----0-0-----0-0----------------|-----0-0-----0-0-----0-0-0-----0-0-----0-0----------------|-6-6-----6-6-----6/9-9-9-9-9-9-----7-7-----/12-12-12-12-12|-x-x-----x-x-----x---x-x-x-x-x-----x-x----------x--x--x--x|-4-4-----4-4-----4/7-7-7-7-7-7-----5-5-----/10-10-10-10-10|----------------------------------------------------------
Pre-chorus before last chorus: Fig 1 light distortion
|--------------------------------------------------||--------------------------------------------------||---4-4-4-0-4-4-4-4-4-0----------------2-2-2-2-0-0-||---2-2-2-2-2-2-2-2-2-0-4-4-4/7-7-7--2-2-2-2-2-2-0-||-0---------2-----------4-4-4/7-7-7--2-2-2-0-0-0---||-----------0-----------2-2-2/5-5-5--0-------------|
|--------------------------------------------------||--------------------------------------------------||---4-4-4-0-4-4-4-4-4-0-------------------9/11-11--||---2-2-2-2-2-2-2-2-2-0-4-4-4/7-7-7--2-0--x-----x--||-0---------2-----------4-4-4/7-7-7--2-0--7/9---9--||-----------0-----------2-2-2/5-5-5--0-------------|
Ending Note:
|-----||-----||--4--||--2--||--0--||-----|
Tap to rate this tab
 
# A B C D E F G H I J K L M N O P Q R S T U V W X Y Z