Inner Garden tab with lyrics by King Crimson - Easy chords and tabs for guitar

King Crimson – Inner Garden tab

Tunning: D A D G B E (Dropped D)
The song is in 6/4

|--------------------------|--------------------------||-------0------------------|-------0-----------2------||-------------------3------|--------------------------||-----4---4-------4---4----|-----4---4-------4---4----||---1-------1---2-------2--|---1-------1---2-------2--||-1-----------1------------|-1-----------0------------|
|--------------------------|--------------------------||-------0------------------|-------0------------------||-------------------3------|-----------------------1--||-----4---4-------4---4----|-----4---4-------4---0----||---1-------1---2-------2--|---1-------1---2----------||-1-----------1------------|-1-----------0-----3------|
|--------------------------|--------------------------||-------3-----------2------|-------3------------------||-----1---1-------1---1----|-----1---1-------2-1------||---------------0-------0--|---------------0----------||---4-------4--------------|---4-------4--------------||-4-----------4------------|-4-----------3------------|
|--------------------------|--------------------------||-------0------------------|-------0-----------2------||-------------------3------|--------------------------||-----4---4-------4---4----|-----4---4-------4---4----||---1-------1---2-------2--|---1-------1---2-------2--||-1-----------1------------|-1-----------0------------|
|--------------------------|--------------------------||-------0------------------|-------0------------------||-------------------3------|-----------------------1--||-----4---4-------4---4----|-----4---4-------4---0----||---1-------1---2-------2--|---1-------1---2----------||-1-----------1------------|-1-----------0-----3------|
|--------------------------|-------------------0------||-------3-----------2------|-------3------------------||-----1---1-------1---1----|-----1---1-------2---2----||---------------0-------0--|---------------0-------0--||---4-------4--------------|---4-------4--------------||-4-----------4------------|-4-----------3------------|
|--------------------------|--------------------------||-------3-----------2------|-------3------------------||-----1---1-------1---1----|-----1---1-------2-----3--||---------------0-------0--|---------------0-----2----||---4-------4--------------|---4-------4--------------||-4-----------4------------|-4-----------3-----5------|
|-------0------------------|-------0------------------||-----0---0-------0-4-0----|-----0---0-------------2--||--------------------------|-----------------3---0----||---1-------1---2-------2--|---1-------1---2----------||--------------------------|-------------------1------||-6-----------6------------|-6-----------5------------|
|-------3-----------2------|-------3-----------5------||-----3---3-------3---3----|-----3---3-------3---3----||---------------0-------0--|---------------0-------0--||---4-------4--------------|---4-------4--------------||-2-----------2------------|-2-----------1------------||--------------------------|--------------------------|
|-------3-----------2------|-------3------------------||-----3---3-------3---3----|-----3---3-------3-----2--||---------------0-------0--|---------------0----------||---4-------4--------------|---4-------4--------------||-2-----------2------------|-2-----------1------------||--------------------------|--------------------------|
I don't find difference between the parts one and two (on the guitar) but if you hear any one or know another way to play it it'll be welcome.
Please rate this tab:
x1.0