Falling In Love At A Coffee Shop tab with lyrics by Landon Pigg - Easy chords and tabs for guitar

Landon Pigg – Falling In Love At A Coffee Shop tab

-------------------------------------------------------------------------------
	        Falling In Love At a Coffee Shop - Landon Pigg
-------------------------------------------------------------------------------
Tabbed by: Blosr
Email: blosrboi@gmail.com

Tuning: Standard



This is My Personal Interpretation of This song. If you cannot play the bass line, just ignore it.



|-0-----2---------------------------------------------------------------------------------------||-------------4-----5-----2-----4-----0---------------------------------------------------------||-------------------------------------------2-----1-----1-----1-----1-----1-----1-----1-----1---| |-----------------------------------------------------------------------------------------------||-----------------------------------------------------------------------------------------------||-0--0-----0--0--0-----0--0--0-----0--0--0-----0--0--0-----0--0--0-----0--0--0-----0--0--0-----0| *Play This Line x2*
|-0-----2--------------------------------------||-------------4-----5-----2-----4-----0--------||-------------------------------------------2--||----------------------------------------------||----------------------------------------------||-0--0-----0--0--0-----0--0--0-----0--0--0-----|
|--------------||--------------||----1-----1---| x12|--------------||--------------||-0--0--0------|
|-0-----2--------------------------------------||-------------4-----5-----2-----4-----0--------||-------------------------------------------2--||----------------------------------------------||----------------------------------------------||-0--0-----0--0--0-----0--0--0-----0--0--0-----|
|--------------||--------------||----1-----1---| x4|--------------||--------------||-0--0--0------|
|-0-----2----------------------------------------||-------------4-----5-----2-----4-----0----------||-------------------------------------------2----||------------------------------------------------||------------------------------------------------||-0--0-----0--0--0-----0--0--0-----0--0--0-----0-|
|-------------------------4-----------4----------------------------------------------------------||-2-----------2-----------------------------------4-----------4-----------5-----------5----------||-------2-----------2-----------2-----------2-----------2-----------2-----------2-----------2----||------------------------------------------------------------------------------------------------||-0--0-----0--0--0-----0--0--0-----0--0--0-----0--0--0-----0--0--0-----0--0--0-----0--0--0-----0-||------------------------------------------------------------------------------------------------|
|------------------------------------------------||-0-----------0-----------4-----------4----------||-------1-----------1-----------4-----------4----||------------------------------------------------||------------------------------------------------||-0--0-----0--0--0-----0--0--0-----0--0--0-----0-|
|------------||-0----------||-------1----| x4|------------||------------||-0--0-----0-|
|------------------------------------------------||-0-----------0-----------4-----------4----------||-------1-----------1-----------4-----------4----||------------------------------------------------||------------------------------------------------||-0--0-----0--0--0-----0--0--0-----0--0--0-----0-|
|------------||-0----------||-------1----| x4|------------||------------||-0--0-----0-|
These Next Two Lines are the Chorus:|----------------------------------------------------------------------------------||----------------------------------------------------------------------------------||----------------------------------------------------------------------------------||-4----4---4-4----4---4-4/6----6---6-6----6-6/7----7---7-7----7-7/9---9----9---9-9-||-4----4---4-4----4---4-4/6----6---6-6----6-6/7----7---7-7----7-7/9---9----9---9-9-||-2----2---2-2----2---2-2/4----4---4-4----4-4/5----5---5-5----5-5/7---7----7---7-7-| *Strum Pattern : Down, Up, Up, Down, Up, Up.*
|------------------------------------------------------------------------------------||------------------------------------------------------------------------------------||------------------------------------------------------------------------------------| |-4----4---4-4----4---4-4/6----6---6-6----6-6/7----7---7-7----7---7-7----7---7-7---7-||-4----4---4-4----4---4-4/6----6---6-6----6-6/7----7---7-7----7---7-7----7---7-7---7-||-2----2---2-2----2---2-2/4----4---4-4----4-4/5----5---5-5----5---5-5----5---5-5---5-|*Play This Line x4*
|-0-----2---------------------------------------------------------------------------------------||-------------4-----5-----2-----4-----0---------------------------------------------------------||-------------------------------------------2-----1-----1-----1-----1-----1-----1-----1-----1---| |-----------------------------------------------------------------------------------------------||-----------------------------------------------------------------------------------------------||-0--0-----0--0--0-----0--0--0-----0--0--0-----0--0--0-----0--0--0-----0--0--0-----0--0--0-----0|
|-0-----2-----------------------------------------------------2-----0---------------------------||-------------4-----5-----2-----4-----0-----------------0---------------------------------------||-------------------------------------------2-----1-----------------------2-----2-----2-----2---| |-----------------------------------------------------------------------------------------------||-----------------------------------------------------------------------------------------------||-0--0-----0--0--0-----0--0--0-----0--0--0-----0--0--0-----0--0--0-----0--0--0-----0--0--0-----0|
|-------------||-------------||-1-----1-----| x8|-------------||-------------||-0--0-----0--|
|-0-----2---------------------------------------------------------------------------------------||-------------4-----5-----2-----4-----0---------------------------------------------------------||-------------------------------------------2-----1-----1-----1-----1-----1-----1-----1-----1---| |-----------------------------------------------------------------------------------------------||-----------------------------------------------------------------------------------------------||-0--0-----0--0--0-----0--0--0-----0--0--0-----0--0--0-----0--0--0-----0--0--0-----0--0--0-----0|
|-0-----2----------------------------------------||-------------4-----5-----2-----4-----0----------||-------------------------------------------2----||------------------------------------------------||------------------------------------------------||-0--0-----0--0--0-----0--0--0-----0--0--0-----0-|
|-------------------------4-----------4----------------------------------------------------------||-2-----------2-----------------------------------4-----------4-----------5-----------5----------||-------2-----------2-----------2-----------2-----------2-----------2-----------2-----------2----||------------------------------------------------------------------------------------------------||-0--0-----0--0--0-----0--0--0-----0--0--0-----0--0--0-----0--0--0-----0--0--0-----0--0--0-----0-||------------------------------------------------------------------------------------------------|
|------------||-0----------||-------1----| x4|------------||------------||-0--0-----0-|
|------------------------------------------------||-0-----------0-----------4-----------4----------||-------1-----------1-----------4-----------4----||------------------------------------------------||------------------------------------------------||-0--0-----0--0--0-----0--0--0-----0--0--0-----0-|
|------------||-0----------||-------1----| x4|------------||------------||-0--0-----0-|
Play The Chorus Again, but slightly different at the end:|----------------------------------------------------------------------------------||----------------------------------------------------------------------------------||----------------------------------------------------------------------------------||-4----4---4-4----4---4-4/6----6---6-6----6-6/7----7---7-7----7-7/9---9----9---9-9-||-4----4---4-4----4---4-4/6----6---6-6----6-6/7----7---7-7----7-7/9---9----9---9-9-||-2----2---2-2----2---2-2/4----4---4-4----4-4/5----5---5-5----5-5/7---7----7---7-7-|
|------------------------------------------------------------------------------------||------------------------------------------------------------------------------------||------------------------------------------------------------------------------------| |-4----4---4-4----4---4-4/6----6---6-6----6-6/7----7---7-7----7---7-7----7---7-7---7-||-4----4---4-4----4---4-4/6----6---6-6----6-6/7----7---7-7----7---7-7----7---7-7---7-||-2----2---2-2----2---2-2/4----4---4-4----4-4/5----5---5-5----5---5-5----5---5-5---5-|*Play This Line x4*
|----------------------------------------------------------------------------------||----------------------------------------------------------------------------------||----------------------------------------------------------------------------------||-7----7---7-7----7---7-7----7---7-7----7-7----7---7-7----7-7/9---9----9---9-9-||-7----7---7-7----7---7-7----7---7-7----7-7----7---7-7----7-7/9---9----9---9-9-||-5----5---5-5----5---5-5----5---5-5----5-5----5---5-5----5-5/7---7----7---7-7-|
|-0-----2-----------------------------------------------------2-----0---------------------------||-------------4-----5-----2-----4-----0-----------------0---------------------------------------||-------------------------------------------2-----1-----------------------2-----2-----2-----2---| |-----------------------------------------------------------------------------------------------||-----------------------------------------------------------------------------------------------||-0--0-----0--0--0-----0--0--0-----0--0--0-----0--0--0-----0--0--0-----0--0--0-----0--0--0-----0|
|-0-----2-----------------------------------------------------2-----0---------------------------||-------------4-----5-----2-----4-----0-----------------0---------------------------------------||-------------------------------------------2-----1-----------------------1-----1-----1-----1---| |-----------------------------------------------------------------------------------------------||-----------------------------------------------------------------------------------------------||-0--0-----0--0--0-----0--0--0-----0--0--0-----0--0--0-----0--0--0-----0--0--0-----0--0--0-----0|
|-0-----2-----------------------------------------------------2-----0---------------------------||-------------4-----5-----2-----4-----0-----------------0---------------------------------------||-------------------------------------------2-----1-----------------------2-----2-----2-----2---| |-----------------------------------------------------------------------------------------------||-----------------------------------------------------------------------------------------------||-0--0-----0--0--0-----0--0--0-----0--0--0-----0--0--0-----0--0--0-----0--0--0-----0--0--0-----0|
>--Slow Down-->|-0-----2-----------------------------------------------------2---------------0-----||-------------4-----5-----2-----4-----0-----------------0-----------0---------0-----||-------------------------------------------2-----1---------------------------1-----| |-----------------------------------------------------------------------------2-----||-----------------------------------------------------------------------------2-----||-0--0-----0--0--0-----0--0--0-----0--0--0-----0--0--0-----0--0--0------0-----0-----|
Please rate this tab:
x1.0