Mastodon - Divinations tab version 1

#----------------------------------PLEASE NOTE---------------------------------#
#This file is the author's own work and represents their interpretation of the #
#song. You may only use this file for private study, scholarship, or research. #
#------------------------------------------------------------------------------##

                                    DIVINATIONS
                           As recorded by Mastodon
                      (From the 2009 Album CRACK THE SKYE)

Guitar I - Brent Hinds (DGCFAD)
Guitar II - Bill Kelliher (DGCFAD)
Guitar III - Cleanish Guitar (DGCFAD)

If you think something dosnt sound right and you know how to play it please
tell me! Also if you know the solo send it to me! I will be very happy!

Intro
This is all fingerpicked I think. Let ring where possible

Guitar III|-------|-------------------------|-------------------------||-----0-|-------4-----5---------0-|-------4-----5---------0-||-3p0---|-1p0-0---0-0---0-0-3p0---|-1p0-0---0-0---0-0-3p0---||-------|-------------------------|-------------------------||-------|-------------------------|-------------------------||-------|-------------------------|-------------------------|
|-------------------------|-------------------------||-------4-----5---------0-|-------4-----5-----------||-1p0-0---0-0---0-0-3p0---|-1p0-0---0-0---0-0-0-7p4-||-------------------------|-------------------------||-------------------------|-------------------------||-------------------------|-------------------------|
Guitar III|-----3-----0-----------|-----3-----0-----------|-----3-----0-----------|-----3-----0-----------||-----------------------|-----------------------|-----------------------|-----------------------||-5p4---4-4---4-4-7p4-4-|-5p4---4-4---4-4-7p4-4-|-5p4---4-4---4-4-7p4-4-|-5p4---4-4---4-4-7p4-4-||-----------------------|-----------------------|-----------------------|-----------------------||-----------------------|-----------------------|-----------------------|-----------------------||-----------------------|-----------------------|-----------------------|-----------------------|
|
|Guitar I & II|-----------------------|-----------------------|-----------------------|-----------------------||-----------------------|-----------------------|-----------------------|-----------------------||-----------------------|-----------------------|-----------------------|-----------------------||-9--9------------------|-9--9------------------|-----------------------|-9--9------------------||-9--9------------------|-9--9-10-10-10-10-10-10|-9--9------------------|-9--9-10-10-10-10-10-10||-7--7------------------|-7--7-8--8--8--8--8--8-|-7--7------------------|-7--7-8--8--8--8--8--8-|
Main Riff Clean guitar plays the intro behind it
Guitar I|-----------------------|------------------------||-----------------------|------------------------||-----------------------|------------------------||-----------1-----------|-----------1------------||-5-5-2-3-5---5-3-2-0---|-5-5-2-3-5---5-3-2-0----||-3-3-----------------4-|-3-3-----------------4--|
|
|Guitar II|-----------------------|-------------------------||-----------------------|-------------------------||-----------------------|-------------------------||-----------------------|-------------------------||-5-5-------------------|-5-5---6--6--6--6--6--6--||-3-3-------------------|-3-3---4--4--4--4--4--4--|
|-----------------------|------------------------||-----------------------|------------------------||-----------------------|-----------------0-1-4--||-----------1-----------|-----------1-3-4--------||-5-5-2-3-5---5-3-2-0---|-5-5-2-3-5--------------||-3-3-----------------4-|-3-3--------------------|
| ^Not sure about this bit|-----------------------|-------------------------||-----------------------|-------------------------||-----------------------|-------------------------||-----------------------|-------------------------||-5-5-------------------|-5-5---6--6--6--6--6--6--||-3-3-------------------|-3-3---4--4--4--4--4--4--|
|-----------------------|-----------------------||-----------------------|-----------------------||-----------1-----------|-----------1-----------||-4-4-2-3-5---5-3-2-0---|-4-4-2-3-5---5-3-2-0---||-2-2-----------------3-|-2-2-----------------3-||-----------------------|-----------------------|
| |
|-----------------------|-----------------------||-----------------------|-----------------------||-----------------------|-----------------------||-4-4-------------------|-4-4-------5-5-5-5-5-5-||-2-2-------------------|-2-2-------3-3-3-3-3-3-||-----------------------|-----------------------|
|-----------------------|-----------------------||-----------------------|-----------------1-4-5-||-----------1-----------|-----------1-3-4-------||-4-4-2-3-5---5-3-2-0---|-4-4-2-3-5-------------||-2-2-----------------3-|-2-2-------------------||-----------------------|-----------------------|
| |
|-----------------------|-----------------------||-----------------------|-----------------------||-----------------------|-----------------------||-4-4-------------------|-4-4-------5-5-5-5-5-5-||-2-2-------------------|-2-2-------3-3-3-3-3-3-||-----------------------|-----------------------|
VerseGuitar I & II|-------------------------|-------------------------||-------------------------|-------------------------||-------------------------|-------------------------||-------5-----6-----------|-------5-----6-----------||-------------------------|-------------------------||-4p3-3---3-3---3-3-3h4-4-|-4p3-3---3-3---3-3-3h4-4-| x2 PM PM--| PM--| PM PM--| PM--|
|--------------------------|--------------------------||--------------------------|--------------------------||-------9-----10-----------|-------9-----10-----------||--------------------------|--------------------------||-8p7-7---7-7----7-7-7h8-8-|-8p7-7---7-7----7-7-7h8-8-||--------------------------|--------------------------| x2 PM PM--| PM--| PM PM--| PM--|
Chorus I'm not sure if this is right
Guitar I & II|------------------|--------------------------||-8-8-8-8-8--------|-5h6p5/8h10p8-5h6p5-------||-5-5-5-5-5--5h7p5-|--------------------5h7p5-||-7-7-7-7-7--------|--------------------------||-0-0-0-0-0--------|--------------------------||------------------|--------------------------|
|------------------|-------------------------||-8-8-8-8-8--------|-------------------------||-5-5-5-5-5--5h7p5-|-------------------------||-7-7-7-7-7--------|-5h7p5-4h5p4-------------||-0-0-0-0-0--------|-------------4h5p4-0h2p0-||------------------|-------------------------|
|---------------|----8--8----8--8-||-8-8-8-8-8-8-8-|----0--0----0--0-||-5-5-5-5-5-5-5-|-----------------||-7-7-7-7-7-7-7-|-7-------7-------||-0-0-0-0-0-0-0-|-0-------0-------||---------------|-----------------|
|---------------|------10-------13-||-8-8-8-8-8-8-8-|-/13------/17-----||-5-5-5-5-5-5-5-|------------------||-7-7-7-7-7-7-7-|------------------||-0-0-0-0-0-0-0-|------------------||---------------|------------------| ^This bit is deffinatly wrong
Verse Chorus
BridgeGuitar I & II|--------------------|-------------------|--------------------|-------------------||--------------------|-------------------|--------------------|-------------------||--------------------|-------------------|--------------------|-------------------||--------------------|-------------------|--------------------|-------------------||-7----7-7h8p5-5h7-7-|-7----7-7h8p5-7--7-|-7----7-7h8p5-5h7-7-|-9--7--5--4--5--4--||---0----------------|---0---------------|---0----------------|-7--5--3--2--3--2--|
|--------------------|-------------------|--------------------|-------------------||--------------------|-------------------|--------------------|-------------------||--------------------|-------------------|--------------------|-------------------||--------------------|-------------------|--------------------|-------------------||-2----2-2h3p0-0h2-2-|-2----2-2h3p0-2--2-|-2----2-2h3p0-0h2-2-|-5--4--5--7--5--7--||---0----------------|---0---------------|---0----------------|-3--2--3--5--3--5--|
Pre-Solo & Rythm Behind Solo|-----------------------------|--------------------------||-----------------------------|--------------------------||-----------------------------|--------------------------||-----------------------------|--------------------------||-----------------------------|--------------------------||-12-0-0-0-0-0-13-0-12-0-10-0-|-9-0-0-0-0-0-10-0-9-0-7-0-|
|-------------------------|-------------------------||-------------------------|-------------------------||-------------------------|-------------------------||-------------------------|-------------------------||-------------------------|-------------------------||-6-0-0-0-0-0-7-0-6-0-4-0-|-3-3-3-3-3-3-1-1-1-1-1-1-|
|-------------------------|-------------------------||-------------------------|-------------------------||-------------------------|-------------------------||-------------------------|-------------------------||-------------------------|-------------------------||-0-0-0-0-0-0-0-0-1-1-3-3-|-4-4-4-4-4-4-6-6-4-4-3-3-|
|-------------------------|-------------------------------||-------------------------|-------------------------------||-------------------------|-------------------------------||-------------------------|-------------------------------||-------------------------|-------------------------------||-7-7-7-7-7-7-6-6-7-7-9-9-|-10-10-10-10-10-10-1-1-1-1-1-1-|
Chorus
Outro|--------------------|-------------------|--------------------|-------------------||--------------------|-------------------|--------------------|-------------------||--------------------|-------------------|--------------------|-------------------||--------------------|-------------------|--------------------|-------------------||-7----7-7h8p5-5h7-7-|-7----7-7h8p5-7--7-|-7----7-7h8p5-5h7-7-|-9--7--5--4--5--4--||---0----------------|---0---------------|---0----------------|-7--5--3--2--3--2--|
|--------------------|-------------------|--------------------|-------------------||--------------------|-------------------|--------------------|-------------------||--------------------|-------------------|--------------------|-------------------||--------------------|-------------------|--------------------|-------------------||-2----2-2h3p0-0h2-2-|-2----2-2h3p0-2--2-|-2----2-2h3p0-0h2-2-|-5--4--5--7--5--7--||---0----------------|---0---------------|---0----------------|-3--2--3--5--3--5--|
|---------------|----------|----------||---------------|----------|----------||---------------|----------|----------||---------------|----------|-2--------||-9-7-9-12-9-12-|-14\------|-2--------||-7-5-7-10-7-10-|-12\------|-0--------|
Well thats it. If you have any corrections as I said, tell me! Enjoy!
Tap to rate this tab
 
# A B C D E F G H I J K L M N O P Q R S T U V W X Y Z