Mastodon - Divinations tab

Band: Mastodon
Song: Divinations
Album: Crack the Skye
Year: 2009


Tuning: D Standard

Gtr 1 - Intro|---------------0--------------||---------4-------0--------0---||-------0---0----------3-------||-5h6p5-------5------5---5-----||------------------------------||------------------------------|
|-------------0--------------||-------4-------0--------0---||-----0---0----------3-------||-6p5-------5------5---5-----||----------------------------||----------------------------| [x3]
|--------------0--------------||--------8-------0--------0---||------0---0----------7-------||-10p9-------9------9---9-----||-----------------------------||-----------------------------| [x4]
Gtr 2|-----------------------||-----------------------||-----------------------||-9-9-------9-9---10----||-9-9-------9-9---10----||-7-7-------7-7---8-----| [x2]
|---------------0--------------||---------4-------0--------0---||-------0---0----------3-------||-5h6p5-------5------5---5-----||------------------------------||------------------------------|
|-------------0--------------||-------4-------0--------0---||-----0---0----------3-------||-6p5-------5------5---5-----||----------------------------||----------------------------| [x3]
Gtr 1|--------------------------||--------------------------||--------------------------||----------0h1p0---0-------||----0h1h3-------3---1p0---||-3------------------------| [x3]
|--------------------------||--------------------------||--------------------3h5---||-------0h1h3--0h3h5-------||-0h1h3--------------------||--------------------------|
|--------------------------||--------------------------||--------------------------||----------4h5p4---4-------||----4h5h7-------7---7p5---||-7------------------------| [x3]
|---------------------------||---------------------------||--------------------6h7----||-------4h5h7--5h7h9--------||-4h5h7---------------------||---------------------------|
Gtr 1&2 - Verse|---------------------------||---------------------------||---------------------------||-------5-----6---5-----5---||---------------------------||-4p3h4---4-4---4---3h4-----| [x4]
|----------------------------||----------------------------||-------9-----10---9-----9---||----------------------------||-8p7h8---8-8----8---7h8-----||----------------------------| [x4]
[x2]
Gtr 1 - Chorus|----7-7-7-----------------------------------------------||----0-0-0---8s10-8-10s12-10-12s15-12-10h12p10-8h10p8----||----5-5-5-----------------------------------------------||----7-7-7-----------------------------------------------||-0------------------------------------------------------||--------------------------------------------------------|
|----7-7-7-----------------------------------||----0-0-0-----------------------------------||----5-5-5-------5-4h5p4p0----0--------------||----7-7-7---5h7-----------5----4h5p4p0-2----||-0------------------------------------------||--------------------------------------------|
Gtr 2|----7-7-7-------------------------------------||----0-0-0-------------------------------------||----5-5-5---5h7p5-7h9p7-9h12p9-7h9p9-5h7p5----||----7-7-7-------------------------------------||-0--------------------------------------------||----------------------------------------------|
|----7-7-7-----------------------------------||----0-0-0-------8-7h8p7p0----0--------------||----5-5-5---7h9-----------7----6h7p6p0-4----||----7-7-7-----------------------------------||-0------------------------------------------||--------------------------------------------|
Gtr 1&2|----0-0-0---0-------------0------------0--------||----1-1-1-----1---------3---3--------7---7------||----2-2-2-------2-----4-------4----7-------7----||-4--4-4-4---------4s6-----------6s9-------------||------------------------------------------------||------------------------------------------------|
|----0--0--0----0--------------0--------------0---------||----13-13-13-----13---------15-15---------19---19------||----14-14-14-------14-----16-----16-----19-------19----||-16-16-16-16---------16s18---------18s21---------------||-------------------------------------------------------||-------------------------------------------------------|
Verse repeat Chorus repeat Verse repeat Chorus repeat
Gtr 1&2|----------------------------------------------------------------------||----------------------------------------------------------------------||-------9-------------9-----------------9----------9------------9------||-----------------------------------0h7---7----------------------------||-7-------7s8s7p0-0h7----7----0h7h8---------8-7------7s8s7p0-0h7-------||---0---------------------0---------------------0----------------------|
|----------------------||----------------------||----------------------||-9--7--5--4--5--4-----||-9--7--5--4--5--4-----||-7--5--3--2--3--2-----|
|-----------------------------------------------------------------------||-----------------------------------------------------------------------||-------4-------------4-----------------4----------4-------------4------||-----------------------------------0h2---2-----------------------------||-2-------2s3s2p0-0h2----2----0h2h3----------3-2------2s3s2p0-0h2-------||---0----------------------0---------------------0----------------------|
|----------------------||----------------------||----------------------||-5--4--5--7--5--7-----||-5--4--5--7--5--7-----||-3--2--3--5--3--5-----|
t=tremolo pickingGtr 1|-------------------------------------------------------------------||-------------------------------------------------------------------||-------------------------------------------------------------------||-------------------------------------------------------------------||-------------------------------------------------------------------||-12-0t-13-0-12-0-10-0-9-0t-10-0-9-0-7-0-6-0t-7-0-6-0-4-0-3t-1t-----|
|-------------------------------------------------||-------------------------------------------------||-------------------------------------------------||-------------------------------------------------||-------------------------------------------------||-0t-1t-3t-5t-6t-7t-6t-4t-3t-6t-7t-9t-10t-2t------| [x1]
Gtr 2 - Solo|-------------------------------------------------------------------||-17t-17h18p17--15h17p15-13h15p13-12t-11h12p11----11----------------||----------------------------------------------14---14-12----15-----||---------------------------------------------------------14--------||-------------------------------------------------------------------||-------------------------------------------------------------------|
|---------------17----0-------0-15p0----------0-15p0-----||-15-------0-15----15---15h17--------17-15h17--------0---||----15h16-----------------------------------------------||--------------------------------------------------------||--------------------------------------------------------||--------------------------------------------------------|
|-12p0------------------------------------------------------------||------15p0-12p0-12p0---12---0-12p0-------------------------------||---------------------14--14-------14p0-12p0-12p0---12---0--------||-------------------------------------------------14--14----------||-----------------------------------------------------------------||-----------------------------------------------------------------|
|------------------------------------------------------------------||------------------------------------------------------------------||-12p0-------------------------------------------------------------||------14p0-12p0-12p0----12----0----------------------------12-----||---------------------14----14---14s12-10-12p10----10-12s14--------||-----------------------------------------------12-----------------|
|-----------------------------------------------------------------------------||-----------------------------------------------------------------------------||-----------------------------------------------------0-7---0---- 0-7----0----||---------------------------------------------0-----------5---7s9-----9-------||-7t-7h8p7-5h7p5-3h5p3-2t-2h3p2---2--------------0h5h7------------------------||------------------------------5---5p3p2-6------------------------------------|
tr=trill|----------0--12----12----12--------------------------------------------------||----------0--15b17-15b17-15b17--12tr15--11h12p11----11-----------------------||-----0------------------------------------------14----14p12----14----12------||-7s9---12---------------------------------------------------14----14---------||-----------------------------------------------------------------------------||-----------------------------------------------------------------------------|
|------------------------------------||------------------------------------||------------------------------------||-14-12----14-----------------12-----||-------14----14s12-10--12s14--------||------------------------------------|
Chorus repeat
|----------------------------------------------------------------------||----------------------------------------------------------------------||-------9-------------9-----------------9----------9------------9------||-----------------------------------0h7---7----------------------------||-7-------7s8s7p0-0h7----7----0h7h8---------8-7------7s8s7p0-0h7-------||---0---------------------0---------------------0----------------------|
|----------------------||----------------------||----------------------||-9--7--5--4--5--4-----||-9--7--5--4--5--4-----||-7--5--3--2--3--2-----|
|-----------------------------------------------------------------------||-----------------------------------------------------------------------||-------4-------------4-----------------4----------4-------------4------||-----------------------------------0h2---2-----------------------------||-2-------2s3s2p0-0h2----2----0h2h3----------3-2------2s3s2p0-0h2-------||---0----------------------0---------------------0----------------------|
|------------------------------------------------------||------------------------------------------------------||------------------------------------------------------||-5--4--5--7--5--7--9--7--9--12--9--12--14-------2-----||-5--4--5--7--5--7--9--7--9--12--9--12--14-------2-----||-3--2--3--5--3--5--7--5--7--10--7--10--12-------0-----|
Tap to rate this tab
 
# A B C D E F G H I J K L M N O P Q R S T U V W X Y Z