Mastodon - I Am Ahab tab

Band:  Mastodon
Album: Leviathan
Song:  I Am Ahab

Copyright (c) (2000) Relapse Records

Transcribed By: Ben Geddes
Email: bengeddes@yahoo.com


.  - palm mute           /  - slide up to
\  - slide down to       ~  - vibrato
h  - hammer on           b  - Bend
p  - pull off            () - ghost note, sustained note
t  - tap                 <> - Trill
ph - pinched harmonic    
*  - see comment      
x  - Left hand mute              
"  - tremolo note        

Tuning D G C F A D


Intro (0:00)D|-----------------------------------------------|A|-----------------------------------------------|F|---------------------------------7----5----4---| C|---9----------9--7--9---10---------------------|G|---7--7-7-7-7-7--5--7---8--------5----3----2---|D|-----------------------------------------------| pm.....
|-----------------------------------------------|||-----------------------------------------------|||-----------------------------------------------|| X2|--9----------9--4--5------7------------4-------|||--7--7-7-7-7-7--2--3------5------------2-------|||-----------------------------------------------|| pm.....
(0:15)|----------------------------|--------------------------|||----------------------------|--------------------------|||----------------------------|--------------------------|| X2|----------------------------|--------------------------|||--7h5h0-7h5h0-7h5-8---8-----|--7h5h0-7h5h0-7h5-5--5----|||----------------------------|--------------------------||
(0:20)|------------------------------|--------------------------------|||------------------------------|--------------------------------|||------------------------------|--------------------------------|| X2|--9---------9-9-7-7-9-9--10---|-9---------9-9-4-4-5-5----7--4--|||--7-7-7-7-7-7-7-5-5-7-7---8---|-7-7-7-7-7-7-7-2-2-3-3----5--2--|||------------------------------|--------------------------------|| pm.................. pm.................
(0:31)|-----------------------------|--------------------------|||-----------------------------|--------------------------|||-----------------------------|--------------------------|| X2|-----------------------------|--------------------------|||---7h5h0-7h5h0-7h5-8---8-----|--7h5h0-7h5h0-7h5-5--5----|||-----------------------------|--------------------------||
Verse (0:36)|----------------------|------------------------|---------------------||----------------------|------------------------|---------------------||----------------------|------------------------|---------------------||---9---7---10--9--10--|--12--------12--11--12--|--9---7---10--9--10--||---7---5---8---7--8---|--10---10---10--9---10--|--7---5---8---7--8---||----------------------|-------8----------------|---------------------|
|-------------------------|||-------------------------|||-------------------------|| X2|--12--------12--11--12---|||--10---10---10--9---10---|||-------8-----------------||
(0:46)|---------------|-----------------|--------------|-----------------|||---------------|-----------------|--------------|-----------------|||---------------|-----------------|--------------|-----------------|| X2|---------------|-----9-----------|--------------|-----9-----------|||--7--2--8-7-8--|-10--7--10-9-10--|-7--2--8-7-8--|-10--7--10-9-10--|||--5--0--6-5-6--|-8------8--7-8---|-5--0--6-5-6--|-8------8--7-8---||
(0:56)|---------------------------------|------------------------|||---------------------------------|------------------------|||---------------------------------|------------------------|||---------------------------------|------------------------|| X2|--8---7---5---4---6---8---5---4--|--5---2---5------5------|||--6---5---3---2---3---6---3---2--|--3---0---3------3------||
Bridge (1:06)|--------------------------|--------------------------||--------------------------|--------------------------||--------------------------|--------------------------||--------------7-7-7-7-7-7-|--------------7-7-7-7-7-7-||--------------------------|--------------------------||--5-5-5-5-5-5-------------|--5-5-5-5-5-5-------------| pm...................................................
|--------------------------|--------------------------||--------------------------|--------------------------||--------------------------|--------------------------||--------------------------|--------------------------||--7p0-0-8p0-0-5p0-4p0-5p0-|--7p0-0-8p0-0-5p0-4p0-5p0-||--------------------------|--------------------------|
|--------------------------|--------------------------||--------------------------|--------------------------||--------------------------|--------------------------||--------------7-7-7-7-7-7-|--------------7-7-7-7-7-7-||--------------------------|--------------------------||--5-5-5-5-5-5-------------|--5-5-5-5-5-5-------------| pm...................................................
|--------------------------|-------------------------|||--------------------------|-------------------------|||--------------------------|-------------------------|| X2|--7p0-0-8p0-0-5p0-4p0-5p0-|-7p0-0-8p0-0-5p0-4p0-5p0-|||--------------------------|-------------------------|||--------------------------|-------------------------||
(1:27)|----------------------------|----------------------------||----------------------------|----------------------------||----------------------------|----------------------------||--12p0-0-11p0-0-8p0-7p0-8p0-|--12p0-0-11p0-0-8p0-7p0-8p0-||----------------------------|----------------------------||----------------------------|----------------------------|
|--------------------------|-------------------------|||--------------------------|-------------------------|||--------------------------|-------------------------|| X2|--7p0-0-8p0-0-5p0-4p0-5p0-|-7p0-0-8p0-0-5p0-4p0-5p0-|||--------------------------|-------------------------|||--------------------------|-------------------------||
Chorus (1:35)Lead Guitar 1 |---------------|-----------|-----------------|-----------||--10---11------|-----------|--8---10---------|-----------||------------12-|-----(12)--|-----------10----|-----(10)--||---------------|-----------|-----------------|-----------||---------------|-----------|-----------------|-----------||---------------|-----------|-----------------|-----------|
|---------------|-----------|---------------|--------------||--6----8----5--|------(5)--|--7----8-------|--10----11----||---------------|-----------|---------------|--------------||---------------|-----------|---------------|--------------||---------------|-----------|---------------|--------------||---------------|-----------|---------------|--------------|
|--10--11---8---|-----(8)---|--8--10---6----|------(6)--||---------------|-----------|---------------|-----------||---------------|-----------|---------------|-----------||---------------|-----------|---------------|-----------||---------------|-----------|---------------|-----------||---------------|-----------|---------------|-----------|
|--6----8----5--|-----(5)---|--2----3-------|---5----7-----|||---------------|-----------|---------------|--------------|||---------------|-----------|---------------|--------------|| X1|---------------|-----------|---------------|--------------|||---------------|-----------|---------------|--------------|||---------------|-----------|---------------|--------------||
ChorusRythmn Guitar (1:35)|---------------|-----------|-----------------|-----------||---------------|-----------|-----------------|-----------||---------------|-----------|-----------------|-----------||---7----8----5-|------(5)--|--5----7----3----|------(3)--||---5----6----3-|------(3)--|--3----5----1----|------(1)--||---------------|-----------|-----------------|-----------|
|-------------------|----------|--------------|---------------|||-------------------|----------|--------------|---------------|||-------------------|----------|--------------|---------------|||---3----5----2-----|----------|--------------|---------------|| X2|---1----3----0-----|-----(2)--|--4-----5-----|--7------8-----|||-------------------|-----(0)--|--2-----3-----|--5------6-----||
Interlude (1:54)|-----------------|-----------------|-----------------|-----------------||---------10------|---------10------|--------11-------|--------11-------||-------9----9----|-------9----9----|-----10----10----|-----10----10----||----7----------7-|----7----------7-|---8-----------8-|---8-----------8-||-0---------------|-0---------------|-0---------------|-0---------------||-----------------|-----------------|-----------------|-----------------|
|-----------------|-------------------|-------------------|------------------|||--------13-------|----------13-------|----------15-------|---------15-------|||------12---12----|-------12----12----|-------14----14----|------14----14----|||---10---------10-|----10----------10-|---12-----------12-|---12----------12-|||-0---------------|--0----------------|-0-----------------|-0----------------|||-----------------|-------------------|-------------------|------------------|| X2
Repeat (0:56) Verse X4
Outro (2:36)|-------------------------|-------------------------|||-------------------------|-------------------------|||-------------------------|-------------------------|| X2|-------------------------|-------------------------|||--7h5h0-7h5h0-7h5-8---8--|--7h5h0-7h5h0-7h5-5--5---|||-------------------------|-------------------------||
|----------------------|---------------------|||----------------------|---------------------|||----------------------|---------------------|||----------------------|------------9--7-9/--|| X1|--7p5p0h7---7p5p0h7---|--7p5p0h7---7--5-7/--|||----------------------|---------------------||
END
Tap to rate this tab
 
# A B C D E F G H I J K L M N O P Q R S T U V W X Y Z