Home tab with lyrics by Michael Buble - Easy chords and tabs for guitar

Michael Buble – Home tab

Michael Buble/Blake Shelton - Home
Tabbed and arranged by: Alejandro Manzano of Boyce Avenue

www.myspace.com/boyceavenue

video of me playing/singing it:
http://www.youtube.com/watch?v=FQTifkxs2F0

Tuning: E  A  D  G  B  E (Standard)

x = mute
^ = hammer on or pull off
/ = slide

Verse 1:------------------------------------------3---3-----3---3-----3-------3--------2^4-2-----0^2-0-----0-----0---0----0---------0---------2-----4----------------------------------5----------3---------2---------0---------------
-------------------------------------------------------0-------------------------3----3--------0------0--2^0---0---------0^2-2^4--2--0^2-----2-------0---4-----0-0^2----------0--3---3---------------------------------------------------------------3-----------2------
--------------------------------------3---3---3-----3---3-----3-------3----0---2^4-2-----0^2-0-----0-----0---0----0---------0---------2-----4----------------------------------5----------3---------2---------0---------------
------------------------------------------0--------------0----------------------------3---3--------0------0--2^0---0--------0^2-2^4--------0^2-----2-------0---4------0^2----------------3---3-----------------------------------------------------------------3--------------------
Transition 1:-0--------------------------3^2----------------------------3--------3-------3-------3------------3--2--------0----0---0-------0---0-------0--------0------0----2----------------2---------------2----2-----------3----------3--------------------------0------------------------------0---------------------------------
----------------------------0^2--------------------3--------3-----3----0---0-------0---0----2--------------------0^2--------0------------0---2---3----------------------------------------------------------
-0--------------------------3^2-----------------0---------------3-----3----------3-------3-----------1-----1-----------0-----0---0------0---0-------0-------2---2-----2-------2-----2----------2---------------2---3-------------3---3------------------------------------3-----------------------------------0---------------------------------------
------3--2-------------------------3----3---3----------2-----2----2^4-2^0---0--0-------0------------2-------------------------------------------------------
Verse 2:--------------------------------------------3---3-----3---3-----3-------3----------2^4-2-----0^2-0-----0-----0---0------0---------0---------2-----4-------4----------------------------5------------3---------2---------0-----------------
------------------------------------------------------------0-----------------0^1^0---------3------------0------0--2^0---0-----------0^2-------2-0--0^2-----2-------0---4-----0-------------0--------3---3--------------------------------------------------------------------3-------------2---------
Chorus:-----------------------------------------------0----------------3-----------------3-------------3-------3---3------0-----0-----0---0^2-------0---0^2^4-----4-----0------0---0-------0---0-----0-------2----------------------------------------------------------------2------------3-----------2---------------0-------------------------
---------------------0----------------------------------0-------------------0^1^0-----------3--------0---0---0^2-------0---------0-------2------0^2-------2-----0-------0---------0---0------3--------------------------------------------------------------------3---------------2-------
Solo:-------9-------10^12-12/14—14\12^10---10^12------------7^8-8--10/12--------------------12-------10^12----------0---------------------------------------------0-------------------0------------------------------------------------------------------------------------------------------------------------------------0-
-------------------0----------------------------10^8-7-8^10-8^7\5-----3-3---0-0---------------------x----------------------------0^2-2^0---0-------0--------------------------------0---4------------------------3-----3-----3------------------------------------------------------------
---------------------3------------------3----------0---0^2-2^4---4------0-0^2---------------------------------------3---------------------
Transition 2:-0--------------------------3^2--------------------------------3--------3-------3-------3--------------3--2----------0----0---0-------0---0-------0--------0--------0------2--------2-------2---------------2----2---2--------2--3-------------------------------------0----------------------------------0-------------------------------------
----------------------------0^2--------------------0--------3-----3----0---0-------0---0----2--------------------0^2--------0------------0---2---3----------------------------------------------------------
-0----------------------------3^2-----------------0---------------3-------3----------3-------3-----------1-----1-----------0---0---0---0------0---0-------0-------2---2-----2-------2-------2----------2---------------2---3-------------3---3--------------------------------------3-------------------------------------0---------------------------------------
-------3---2---------------------3-----3----3---3----------2-------2----2^4-2^0---0--0---------0------------2-----------------------------------------------------------
Verse 3:--------------------------------------------3---3-----3---3-----3-------3----------2^4-2-----0^2-0-----0-----0---0------0---------0---------2-----4-------4----------------------------5------------3---------2---------0-----------------
---------------------------------------0^2--------------0---------------3---------------3--------0-------2^0---0-------0-------2--------0^2-----2-----0---4-----0-----0---0----------3---3--------------------------------------------------------------3---------2-----------
Chorus:------------------------------------------------------------------3-----------------3-------------3---------3----------0-----0-----0---0^2-------0---0^2^4-------0^2-----0----0---0-------0---0-----0-------2-----------0-------0----------------------------------------------2--------------3-----------2---------------0---------------------------
---------------------0----------------------------------------0-------------3-------0^1^0-----------3------------0---0---0^2-----------0-------0-------2---2-0----0^2-------2-----0-------0-----------0---0----------3----------------------------------------------------------------------------3---------------2-----------
----------------------------------------------------------3---------------3-------------3-----3--------0-----0---0---0^2-------0---0^2^4-----0---0----0---0---------0-----0-------2----------------------------------------------------------2--------3-----------2-------------0---------------------
-0----0----3--0----3----3--0----0----0--2----4----0--3----5----x-------5----3-
Please rate this tab:
x1.0