Misc Unsigned Bands - Arse Klarts - Rockin Rolly Neck tab

Arse Kalrts
Rockin' Rolly Neck
Tuning: Standard
Transcribed by Soch Hean

Intro:|---------------------------||---------------------------||---9-----7-----5---4--4-4--||---9-----7-----5---4--4-4--||-7-----5-----3-----2--2-2--||---------------------------| (x3)
|---------------------------||---------------------------||---9-----7-----x---4-------||---9-----7---5-x---4-------||-7-----5-----3-x---2-------||---------------------------|
Verse:|---------------------------||---------------------------||---9-----7-----5---4--4-4--||---9-----7-----5---4--4-4--||-7-----5-----3-----2--2-2--||---------------------------| (x8)
Bridge:|------------------------------------------||------------------------------------------||------------------------------------------||-7-----7-7-5-7--7-7---9-----9-9-7-9--9-9--||-7-----7-7-5-7--7-7---9-----9-9-7-9--9-9--||-5-----5-5-3-5--5-5---7-----7-7-5-7--7-7--|
|--------------------------||--------------------------||--------------------------||-7-----7-7-5-7--7-7---9---||-7-----7-7-5-7--7-7---9---||-5-----5-5-3-5--5-5---7---|
Verse 2: (0:51)|---------------------------||---------------------------||---9-----7-----5---4--4-4--||---9-----7-----5---4--4-4--||-7-----5-----3-----2--2-2--||---------------------------| (x7)
Bridge: (1:15)|------------------------------------------||------------------------------------------||------------------------------------------||-7-----7-7-5-7--7-7---9-----9-9-7-9--9-9--||-7-----7-7-5-7--7-7---9-----9-9-7-9--9-9--||-5-----5-5-3-5--5-5---7-----7-7-5-7--7-7--|
|--------------------------||--------------------------||--------------------------||-7-----7-7-5-7--7-7---9---||-7-----7-7-5-7--7-7---9---||-5-----5-5-3-5--5-5---7---|
Chorus: (1:27)|-------------------------------||-------------------------------||-9-9-9--7-7-7--5-5-5--4--4-4---||-9-9-9--7-7-7--5-5-5--4--4-4---||-7-7-7--5-5-5--3-3-3--2--2-2---||-------------------------------| (x4)
|--------------------------||--------------------------||--------------------------||-7-----7-7-5-7--7-7---9---||-7-----7-7-5-7--7-7---9---||-5-----5-5-3-5--5-5---7---| (x2)
|-------------------------------||-------------------------------||-9-9-9--7-7-7--5-5-5--4--4-4---||-9-9-9--7-7-7--5-5-5--4--4-4---||-7-7-7--5-5-5--3-3-3--2--2-2---||-------------------------------| (x4)
|---------------------------||---------------------------||---------------------------||-7-----7-7-5-7--7-7---9----||-7-----7-7-5-7--7-7---9----||-5-----5-5-3-5--5-5---7----|
|---------------------------------------------||---------------------------------------------||---------------------------------------------||-7-----7-7-5-7--7-7---9------9--7--5--4--2---||-7-----7-7-5-7--7-7---9------9--7--5--4--2---||-5-----5-5-3-5--5-5---7------7--5--3--2--0---|
Main Riff:|---------------------------||---------------------------||---9-----7-----5---4--4-4--||---9-----7-----5---4--4-4--||-7-----5-----3-----2--2-2--||---------------------------| (x3)
|---------------------------||---------------------------||---9-----7-----x---4-------||---9-----7---5-x---4-------||-7-----5-----3-x---2-------||---------------------------|
Chorus Ending:|-------------------------------||-------------------------------||-9-9-9--7-7-7--5-5-5--4--4-4---||-9-9-9--7-7-7--5-5-5--4--4-4---||-7-7-7--5-5-5--3-3-3--2--2-2---||-------------------------------| (x7)
Outro:|---------------------------------------||----------------------------------9----||-9-9-9--7-7-7--5-5-5--4--4-4------9----||-9-9-9--7-7-7--5-5-5--4--4-4------9----||-7-7-7--5-5-5--3-3-3--2--2-2-----------||---------------------------------------|
Tap to rate this tab
 
# A B C D E F G H I J K L M N O P Q R S T U V W X Y Z