Moneen - No Better Way To Show Your Love Than A Set Of Broken Legs tab

Guitar 1

intro

|----------||----------||-66-666---||-99-999---||-66-666---||----------|xxxxxxxxxxxxMute............Palm Mute
*No Distortion*
|-----------------||--8---8-----9----||-9-9-9-8---9-9---||-----------------||-----------------||-----------------|
|-----------||--8---8----||-9-9-9-8---||-----------||-----------||-----------|
verse *Distortion*
|---------------------||---------------------||-444-44-44-444-444---| x4|-xxx-xx-xx-xxx-xxx---||-222-22-22-222-222---||---------------------| xx xxxMute .. ...Palm Mute
chorus
|---------------------||---------------------||-99999999-44444444---| x2|-99999999-44444444---||-77777777-22222222---||---------------------|
|------------------||------------------||-9---9----4---4---| x2|-9---9----4---4---||-7---7----2---2---||------------------|
verse
|----------||----------||-66-666---||-99-999---||-66-666---||----------|xxxxxxxxxxxxMute............Palm Mute
|---------------------||---------------------||-88888888-99999999---| x4|-88888888-99999999---||-66666666-77777777---||---------------------|...............Palm Mute
|---------------------||---------------------||-888-88-88-888-888---| x2|-xxx-xx-xx-xxx-xxx---||-666-66-66-666-666---||---------------------| xx xxxMute .. ...Palm Mute
|---------------------||---------------------||-888----88-----888---||-xxx----xx-----xxx---||-666----66-----666---||---------------------|
|-------------9b---||------------------||-888----88--------||-xxx----xx--------||-666----66--------||------------------|
chorus
|---------------------||---------------------||-99999999-44444444---| x2|-99999999-44444444---||-77777777-22222222---||---------------------|
|------------------||------------------||-9---9----4---4---| x2|-9---9----4---4---||-7---7----2---2---||------------------|
|----------------------------------||----------------------------------||-999999--444444--888888--999999---||-xxxxxx--xxxxxx--xxxxxx--xxxxxx---||-777777--222222--666666--777777---||----------------------------------|....... ..... ..... .....Palm Mute
|-------------------||-------------------||----999999888888---| x2|-22-xxxxxxxxxxxx---||-22-777777666666---||-00----------------|
|-----------------------||-----------------------||----9999888811111111---||-22-xxxxxxxxx-x-x-x----||-22-777766669-9-9-9----||-00--------------------|
bridge
|----------------------||-10--10--10-----------||-x---x---x---8-9-11---||-7---7---7---x-x-x----||-------------6-7-9----||----------------------|
|--------------------||--------------------||-8-9--11-9-8-9-11---||-x-x--x--x-x-x-x----||-6-7--9--7-6-7-9----||--------------------|
|--------------------||--------------------||-8-9--11-9-8-9-11---||-x-x--x--x-x-x------||-6-7--9--7-6-7------||--------------------|
|-------------------------------------||-------------------------------------||-8888888888888888-9999-88888888-4b---||-8888888888888888-9999-88888888-xb---||--------------------------------2b---||-------------------------------------|................................Palm Mute
|-----------------------------------------------||-----------------------------------------------||-888888888888-9999-8888-1313131313131313-11b---||-888888888888-9999-8888-1313131313131313-x-----||-----------------------------------------9-----||-----------------------------------------------|.........................................Palm Mute
|------------------------------------||------------------------------------||-6h7p69-6h78-6h7p6h7p6-4h5p4h5-4b---||-------------------------------xb---||-------------------------------2b---||------------------------------------|
|------------------------||------------------------||-9--8--4--2-1-4--2-4b---||-------------------xb---||-------------------2b---||------------------------|
|--------------------||--------------------||-8-9--11-9-8-9-11---||-x-x--x--x-x-x-x----||-6-7--9--7-6-7-9----||--------------------|
interlude *No Distortion*
|----------------------------||-----16-16-16---------------||---16--------16----16--16---| x4|-16--------------16--16-----||----------------------------||----------------------------|
|--------------------------------------------------||--------------------------------------------------||--------------------------------------------------| x4|--------------------------------------------------||-16-16/18-18-18-16--16-16/18-18-18-16--16-16/18---||--------------------------------------------------|
|-----------------------||-----------------------||-999999-888888-44/66---| x4|-xxxxxx-xxxxxx-xx/xx---||-777777-666666-22/44---||-----------------------|
|--------------------------------------||--------------------------------------||-9999-8888-4444-6666-99999999-44444---||-xxxx-xxxx-xxxx-xxxx-xxxxxxxx-xxxxx---||-7777-6666-2222-4444-77777777-22222---||--------------------------------------|
bridge *Distortion*
|----------------------------------------||----------------------------------------||-4444444444444444-6666-4444-3333-4444---||-4444444444444444-xxxx-xxxx-xxxx-xxxx---||-2222222222222222-4444-2222-1111-2222---||----------------------------------------|
|----------------------------------------||----------------------------------------||-3333333333333333-9999-8888-4444-6666---||-xxxxxxxxxxxxxxxx-xxxx-xxxx-xxxx-xxxx---||-1111111111111111-7777-6666-2222-4444---||----------------------------------------|
|-----------------||-----------------||-4444444433333---||-xxxxxxxxxxxxx---||-2222222211111---||-----------------|
|----------------------------------------||----------------------------------------||-4444444444444444-6666-4444-3333-4444---||-4444444444444444-xxxx-xxxx-xxxx-xxxx---||-2222222222222222-4444-2222-1111-2222---||----------------------------------------|
|----------------------------------------||----------------------------------------||-3333333333333333-9999-8888-4444-6666---||-xxxxxxxxxxxxxxxx-xxxx-xxxx-xxxx-xxxx---||-1111111111111111-7777-6666-2222-4444---||----------------------------------------|
|-----------------||-----------------||-4444444433333---||-xxxxxxxxxxxxx---||-2222222211111---||-----------------|
|----------------------------------------||----------------------------------------||-4444444444444444-6666-4444-3333-4444---||-4444444444444444-xxxx-xxxx-xxxx-xxxx---||-2222222222222222-4444-2222-1111-2222---||----------------------------------------|
|----------------------------------------||----------------------------------------||-3333333333333333-9999-8888-4444-6666---||-xxxxxxxxxxxxxxxx-xxxx-xxxx-xxxx-xxxx---||-1111111111111111-7777-6666-2222-4444---||----------------------------------------|
|-----------------||-----------------||-4444444433333---||-xxxxxxxxxxxxx---||-2222222211111---||-----------------|
|----------------------------------------||----------------------------------------||-4444444444444444-6666-4444-3333-4444---||-4444444444444444-xxxx-xxxx-xxxx-xxxx---||-2222222222222222-4444-2222-1111-2222---||----------------------------------------|
|--------------------------------||--------------------------------||-3333333333333333-9----8----4---||-xxxxxxxxxxxxxxxx-x----x----x---||-1111111111111111-7----6----2---||--------------------------------|
outro N/A ---------------------------------------- Guitar 2 intro *No Distortion*
|---------------||---------------||---6---6--8----||--9---9----9---||-6---7---7-----||---------------|
|------------------||------------------||---6---6-66-666---||--9---9--99-999---||-6---7---66-666---||------------------| xxxxxxxxxxMute ..........Palm Mute
|---------------||---------------||---6---6--8----||--9---9----9---||-6---7---7-----||---------------|
|------------||------------||---6---6----||--9---9-----||-6---7------||------------|
verse *Distortion*
|---------------------||---------------------||-444-44-44-444-444---| x4|-xxx-xx-xx-xxx-xxx---||-222-22-22-222-222---||---------------------| xx xxxMute .. ...Palm Mute
chorus
|---------------------||---------------------||-99999999-44444444---||-99999999-xxxxxxxx---||-77777777-22222222---||---------------------|
|---------------------||---------------------||-99999999-44444444---||-99999999-44444444---||-77777777-22222222---||---------------------|
|------------------||------------------||-9---9----4---4---||-9---9----x---x---||-7---7----2---2---||------------------|
|------------------||------------------||-9---9----4---4---||-9---9----4---4---||-7---7----2---2---||------------------|
verse
|------------------||------------------||---6---6-66-666---||--9---9--99-999---||-6---7---66-666---||------------------| xxxxxxxxxxMute ..........Palm Mute
|---------------------||---------------------||-99999999-99999999---| x4|-99999999-99999999---||-77777777-77777777---||---------------------|...............Palm Mute
|---------------------||---------------------||-888-88-88-888-888---| x2|-xxx-xx-xx-xxx-xxx---||-666-66-66-666-666---||---------------------| xx xxxMute .. ...Palm Mute
|---------------------||---------------------||-888----88-----888---||-xxx----xx-----xxx---||-666----66-----666---||---------------------|
|-------------||-------------||-888----88---||-xxx----xx---||-666----66---||-------------|
chorus
|---------------------||---------------------||-99999999-44444444---||-99999999-xxxxxxxx---||-77777777-22222222---||---------------------|
|---------------------||---------------------||-99999999-44444444---||-99999999-44444444---||-77777777-22222222---||---------------------|
|------------------||------------------||-9---9----4---4---||-9---9----x---x---||-7---7----2---2---||------------------|
|------------------||------------------||-9---9----4---4---||-9---9----4---4---||-7---7----2---2---||------------------|
|----------------------------------||----------------------------------||-999999--444444--888888--999999---||-xxxxxx--xxxxxx--xxxxxx--xxxxxx---||-777777--222222--666666--777777---||----------------------------------|....... ..... ..... .....Palm Mute
|-------------------------------||----101010101010101010101010---||----x-x-x-x-x-x-x-x-x-x-x-x----| x3|-22-7-7-7-7-7-7-7-7-7-7-7-7----||-22----------------------------||-00----------------------------|
bridge
|----------------------||----------------------||-4---4---4---8-9-11---||-x---x---x---x-x-x----||-2---2---2---6-7-9----||----------------------|
|--------------------||--------------------||-8-9--11-9-8-9-11---||-x-x--x--x-x-x-x----||-6-7--9--7-6-7-9----||--------------------|
|-------------------||-------------------||-8-9--11-9-8-9-4---| x5|-x-x--x--x-x-x-x---||-6-7--9--7-6-7-2---||-------------------|
|--------------------||--------------------||-8-9--11-9-8-9-11---||-x-x--x--x-x-x-x----||-6-7--9--7-6-7-9----||--------------------|
interlude *No Distortion*
|------------------||------------------||---8-----8----8---| x12|--9-99--9-9--9----||-6-----7----7-----||------------------|
|-----------------------||-----------------------||-----------------------| x4|-----------------------||-777777-666666-22/44---||-----------------------|
|---------------||---------------||-11---9---11---||-x----x---x----||-9----7---9----||---------------|
|-------------------------------------||-------------------------------------||-9999-8888-44444444-33333333-44444---||-xxxx-xxxx-xxxxxxxx-xxxxxxxx-xxxxx---||-7777-6666-22222222-11111111-22222---||-------------------------------------|
bridge *Distortion*
|-------------------------------------||-------------------------------------||-4444444444444444-4444444444444444---||-4444444444444444-xxxxxxxxxxxxxxxx---||-2222222222222222-2222222222222222---||-------------------------------------|
|----------------------------------------||----------------------------------------||-3333333333333333-9999-8888-4444-6666---||-xxxxxxxxxxxxxxxx-xxxx-xxxx-xxxx-xxxx---||-1111111111111111-7777-6666-2222-4444---||----------------------------------------|
|-----------------||-----------------||-3333333344444---||-xxxxxxxxxxxxx---||-1111111122222---||-----------------|
|-------------------------------------||-------------------------------------||-4444444444444444-4444444444444444---||-4444444444444444-xxxxxxxxxxxxxxxx---||-2222222222222222-2222222222222222---||-------------------------------------|
|----------------------------------------||----------------------------------------||-3333333333333333-9999-8888-4444-6666---||-xxxxxxxxxxxxxxxx-xxxx-xxxx-xxxx-xxxx---||-1111111111111111-7777-6666-2222-4444---||----------------------------------------|
|-----------------||-----------------||-3333333344444---||-xxxxxxxxxxxxx---||-1111111122222---||-----------------|
|-------------------------------------||-------------------------------------||-4444444444444444-4444444444444444---||-4444444444444444-xxxxxxxxxxxxxxxx---||-2222222222222222-2222222222222222---||-------------------------------------|
|----------------------------------------||----------------------------------------||-3333333333333333-9999-8888-4444-6666---||-xxxxxxxxxxxxxxxx-xxxx-xxxx-xxxx-xxxx---||-1111111111111111-7777-6666-2222-4444---||----------------------------------------|
|-----------------||-----------------||-3333333344444---||-xxxxxxxxxxxxx---||-1111111122222---||-----------------|
|-------------------------------------||-------------------------------------||-4444444444444444-4444444444444444---||-4444444444444444-xxxxxxxxxxxxxxxx---||-2222222222222222-2222222222222222---||-------------------------------------|
|--------------------------------||--------------------------------||-3333333333333333-9----8----4---||-xxxxxxxxxxxxxxxx-x----x----x---||-1111111111111111-7----6----2---||--------------------------------|
outro N/A
Tap to rate this tab
 
# A B C D E F G H I J K L M N O P Q R S T U V W X Y Z