Moneen - There Are A Million Reasons For Why This May Not Work And Just One Good One For Why It Will tab

guitar 1

intro

*No Distortion*

|-----------------------------------------||---7--7--7-------5--5--5-----------------||--9-9--9--9-----7-7--7--7----11----14\---| x2|-7---7--7--7-7\5---5--5--5/9----12-------||-----------------------------------------||-----------------------------------------|
verse
|-----------------------------------------||---7--7--7-------5--5--5-----------------||--9-9--9--9-----7-7--7--7----11----14\---| x4|-7---7--7--7-7\5---5--5--5/9----12-------||-----------------------------------------||-----------------------------------------|
chorus
|-----------------------------------------||---77--77--55--55--77--77--77------------||--9---9---7---7---9---9---9-----9---14---| x2|-7---7---5---5---7---7---7----7--/12-----||-----------------------------------------||-----------------------------------------|
interlude N/A verse
|-----------------------------------------||---7--7--7-------5--5--5-----------------||--9-9--9--9-----7-7--7--7----11----14\---| x2|-7---7--7--7-7\5---5--5--5/9----12-------||-----------------------------------------||-----------------------------------------|
|--------------------------------------------------------------||---7--7--7-------5--5--5-----7--7--7-------12----12----12-----||--9-9--9--9-----7-7--7--7---9-9--9--9----14--14----14----14---||-7---7--7--7-7\5---5--5--5/7---7--7--7/12------12----12-------||--------------------------------------------------------------||--------------------------------------------------------------|
|----------------------------------------------------------||---7--7--7-------5--5--5-----7--7--7-----7---12----12-----||--9-9--9--9-----7-7--7--7---9-9--9--9---9-9----14----14---||-7---7--7--7-7\5---5--5--5/7---7--7--7-7---12----12-------||----------------------------------------------------------||----------------------------------------------------------|
chorus
|-----------------------------------------||---77--77--55--55--77--77--77------------||--9---9---7---7---9---9---9-----9---14---||-7---7---5---5---7---7---7----7--/12-----||-----------------------------------------||-----------------------------------------|
|-------------------------------||---77--77--55--55--77--77--7---||--9---9---7---7---9---9---9----||-7---7---5---5---7---7---7-----||-------------------------------||-------------------------------|
interlude *Distortion*
|-----------||-----------||-----------||-7777777---||-7777777---||-5555555---|.............Palm mute
bridge
|-----------------------------||-----------------------------||-----------------------------||-7--7777--777-9--9999--999---||-7--7777--777-9--9999--999---||-5--5555--555-7--7777--777---|
|---------------------------||---------------------------||-777777-666666-4-44-4-44---||-xxxxxx-xxxxxx-x-xx-x-xx---||-555555-444444-2-22-2-22---||---------------------------|
|-----------------------------||-----------------------------||-----------------------------||-7--7777--777-9--9999--999---||-7--7777--777-9--9999--999---||-5--5555--555-7--7777--777---|
|---------------------------------||---------------------------------||---------------------------------||-7--7777--777-9--99911--111111---||-7--7777--777-9--99911--111111---||-5--5555--555-7--7779---9-9-9----|
chorus
|---------------------------||---------------------------||--------------7-5\/7-5\/---||-7--7777--777-x-x\/x-x\/---||-7--7777--777-5-3\/5-3\/---||-5--5555--555--------------|
|-----------------------------------------||-----------------------------------------||--------------777777-14-14-14-14-14-14---||-7--7777--777-xxxxxx-x--x--x--x--x--x----||-7--7777--777-555555-12-12-12-12-12-12---||-5--5555--555----------------------------|
|---------------------------||---------------------------||--------------7-5\/7-5\/---||-7--7777--777-x-x\/x-x\/---||-7--7777--777-5-3\/5-3\/---||-5--5555--555--------------|
|-----------------------------------------||-----------------------------------------||--------------777777-14-14-14-14-14-14---||-7--7777--777-xxxxxx-x--x--x--x--x--x----||-7--7777--777-555555-12-12-12-12-12-12---||-5--5555--555----------------------------|
verse
|---------------------------||---------------------------||-555-333\/777777-555-333---||-xxx-xxx\/xxxxxx-xxx-xxx---||-333-111\/555555-333-111---||---------------------------|
|-----------------------------------------||-----------------------------------------||--------------777777-14-14-14-14-14-14---||-7--7777--777-xxxxxx-x--x--x--x--x--x----||-7--7777--777-555555-12-12-12-12-12-12---||-5--5555--555----------------------------|
|---------------------------||---------------------------||-555-333\/777777-555-333---||-xxx-xxx\/xxxxxx-xxx-xxx---||-333-111\/555555-333-111---||---------------------------|
|---------------------------------||---------------------------------||-7-7-7-9-9-9-11-11-11-12-12-12---||-x-x-x-x-x-x-x--x--x--x--x--x----||-5-5-5-7-7-7-9--9--9--10-10-10---||---------------------------------|
outro
|---------------||---------------||-15-19-15-12---| x9 repeat each note|---------------||---------------||---------------|
guitar 2 intro *No Distortion*
|----------------------------------------------------||----------------------------------------------------||---7--7--7--7--7--7--7--7--7--7--7--7--7--7--7--7---| x2|-99-99-99-99-77-77-77-77-44-44-44-44-55-55-66-77----||----------------------------------------------------||----------------------------------------------------|
verse
|----------------------------------------------------||----------------------------------------------------||---7--7--7--7--7--7--7--7--7--7--7--7--7--7--7--7---| x4|-99-99-99-99-77-77-77-77-44-44-44-44-55-55-66-77----||----------------------------------------------------||----------------------------------------------------|
chorus
|----------------------------------------------------||----------------------------------------------------||---7--7--7--7--7--7--7--7--7--7--7--7--7--7--7--7---| x2|-99-99-99-99-77-77-77-77-44-44-44-44-55-55-66-77----||----------------------------------------------------||----------------------------------------------------|
interlude
|----------------------------------------------------||----------------------------------------------------||---7--7--7--7--7--7--7--7--7--7--7--7--7--7--7--7---||-99-99-99-99-77-77-77-77-44-44-44-44-55-55-66-77----||----------------------------------------------------||----------------------------------------------------|
verse
|----------------------------------------------------||----------------------------------------------------||---7--7--7--7--7--7--7--7--7--7--7--7--7--7--7--7---| x4|-99-99-99-99-77-77-77-77-44-44-44-44-55-55-66-77----||----------------------------------------------------||----------------------------------------------------|
chorus
|-------------------------------||---5------5------5------5------||--7--7---7--7---7--7---7--7----| x4|-5--5---5--5---7--7---7--7-----||-------------------------------||-------------------------------|
interlude
|---------------------------||---2-----2-----2-----2-----||--4-4---4-4---4-4---4-4----||-2---2-2---2-2---2-2---2---||---------------------------||---------------------------|
|---------------------------||---5-5---5-5---5-5---5-5---||--7-7---7-7---7-7---7-7----||-5-----5-----5-----5-------||---------------------------||---------------------------|
|---------------------------||---7-7---7-7---7-7---7-7---||--9-9---9-9---9-9---9-9----||-7-----7-----7-----7-------||---------------------------||---------------------------|
|-----------------------------------||----8--8----8--8----8--8----8--8---||--10-10---10-10---10-10---10-10----||-8-------8-------8-------8---------||-----------------------------------||-----------------------------------|
|---------------------------||---5-5---5-5---5-5---5-5---||--7-7---7-7---7-7---7-7----||-7-----7-----7-----7-------||---------------------------||---------------------------|
|---------------------------||---7-7---7-7---7-7---7-7---||--9-9---9-9---9-9---9-9----||-9-----9-----9-----9-------||---------------------------||---------------------------|
*Distortion*
|-----------||-----------||-----------||-7777777---||-7777777---||-5555555---|.............Palm mute
bridge
|--------------------------------||-7p5h7p5h7p5-7--7p5h7p5h7p5-----||----------------------------6---||--------------------------------||--------------------------------||--------------------------------|
|----------------------------||-7--------/10-10-10-10-10---||----6--4--------------------||----------------------------||----------------------------||----------------------------|
|--------------------------------||-7p5h7p5h7p5-7--7p5h7p5h7p5-----||----------------------------6---||--------------------------------||--------------------------------||--------------------------------|
|-------------------------------------------------------------||-777777-10-10-10-10-10-15-15-15-15-15-15-15-15-15-15-15-15---||-------------------------------------------------------------||-------------------------------------------------------------||-------------------------------------------------------------||-------------------------------------------------------------|
chorus
|-------------------------------------------------------||-------------------------------------------------------||-------------------------------------------------------| x2|-7--7777--777-9--9999--999-5--5555--555-2--2222--222---||-7--7777--777-9--9999--999-5--5555--555-2--2222--222---||-5--5555--555-7--7777--777-3--3333--333-0--0000--000---|
verse
|-------------------------------------------------------||-------------------------------------------------------||-------------------------------------------------------||-5--5555--555-7--7777--777-4--4444--444-2--2222--222---||-5--5555--555-7--7777--777-4--4444--444-2--2222--222---||-3--3333--333-5--5555--555-2--2222--222-0--0000--000---|
|---------------------------------------------------------------------||---------------------------------------------------------------------||---------------------------------------------------------------------||-5--5555--555-7--7777--777-9--9999--999-11--11111111--12--12121212---||-5--5555--555-7--7777--777-9--9999--999-11--11111111--12--12121212---||-3--3333--333-5--5555--555-7--7777--777-9---9-9-9-9---10--10101010---|
outro
|-------------------------------------------------------||-------------------------------------------------------||-------------------------------------------------------| x9|-5--5555--555-7--7777--777-4--4444--444-2--2222--222---||-5--5555--555-7--7777--777-4--4444--444-2--2222--222---||-3--3333--333-5--5555--555-2--2222--222-0--0000--000---|
Tap to rate this tab
 
# A B C D E F G H I J K L M N O P Q R S T U V W X Y Z