Come In Alone tab with lyrics by My Bloody Valentine - Easy chords and tabs for guitar

My Bloody Valentine – Come In Alone tab

Come in Alone. Guitar Tab

F#.C.F#.Bb.C.F#
Or
E.B.E.Ab.B.E (Capo 2nd Fret)


**Listen for Tremolo Glider Dips & Strumming**
**()** - Optional Chord


Intro/Main Riff - Chords (Bilinda): 

         ~STRUM~

|-0------0---0------| |-5------10--12-----| |-3------8---10-----| |-0------0---0------| |-0------0---0------| |-0------0---0------|
Intro/Main Lead (Kevin): Listen for Whammy-Bar Dips
|--------------------------------------------------------| |--------------------------------------------------------| |-------------------12-----------12-13-------------------| |----12-14----12-14--------12-14-------12-14bu(15)bd(14)-| |-12-------12-----------12-------------------------------| |--------------------------------------------------------|
Synth/Sample Backing Melody:
|-15--15--15--15h16-15--15--15--15h16-15--------| |---17--17--17--------17--17--17----------17----| |-----------------------------------------------| |-----------------------------------------------| |-----------------------------------------------| |-----------------------------------------------|
Verse - Chords: ***REMEMBER – Listen for Glider Dips & Strumming ~STRUM~
|-0------0------0------0------0---(0)---0---| |-5------3------5------3------0---(0)---0---| |-3------1------3------1------0---(0)---0---| |-0------0------0------0------5---(7)---0---| |-X------X------x------x------3---(5)---5---| |-X------X------x------x----------------5---|
|-0------0------0-------------0------0------| |-5------3------0-------------5------10-----| |-3------1------0-------------3------8------| |-0------0------0-------------0------0------| |-X------X------5-------------0------0------| |-X------X------5-------------0------0------|
|-0------0------0------0------0---(0)---0---| |-5------3------5------3------0---(0)---0---| |-3------1------3------1------0---(0)---0---| |-0------0------0------0------5---(7)---0---| |-X------X------x------x------3---(5)---5---| |-X------X------x------x----------------5---|
|-0------0------0----------------------------| |-5------3------0----------------------------| |-3------1------0----------------------------| |-0------0------0----------------------------| |-X------X------5----------------------------| |-X------X------5----------------------------|
Intro/Main Riff - Chords ~STRUM~
|-0------0---0------| |-5------10--12-----| |-3------8---10-----| |-0------0---0------| |-0------0---0------| |-0------0---0------|
Intro/Main Lead (Kevin): Listen for Whammy Bar Dives
|--------------------------------------------------------| |--------------------------------------------------------| |-------------------12-----------12-13-------------------| |----12-14----12-14--------12-14-------12-14bu(15)bd(14)-| |-12-------12-----------12-------------------------------| |--------------------------------------------------------|
Synth/Sample Backing Melody:
|-15--15--15--15h16-15--15--15--15h16-15--------| |---17--17--17--------17--17--17--------17------| |-----------------------------------------------| |-----------------------------------------------| |-----------------------------------------------| |-----------------------------------------------|
Verse - Chords: ~STRUM~
|-0------0------0------0------0---(0)---0----| |-5------3------5------3------0---(0)---0----| |-3------1------3------1------0---(0)---0----| |-0------0------0------0------5---(7)---0----| |-X------X------x------x------3---(5)---5----| |-X------X------x------x----------------5----|
|-0------0------0-------------0------0-------| |-5------3------0-------------5------10------| |-3------1------0-------------3------8-------| |-0------0------0-------------0------0-------| |-X------X------5-------------0------0-------| |-X------X------5-------------0------0-------|
|-0------0------0------0------0---(0)---0----| |-5------3------5------3------0---(0)---0----| |-3------1------3------1------0---(0)---0----| |-0------0------0------0------5---(7)---0----| |-X------X------x------x------3---(5)---5----| |-X------X------x------x----------------5----|
|-0------0------0----------------------------| |-5------3------0----------------------------| |-3------1------0----------------------------| |-0------0------0----------------------------| |-X------X------5----------------------------| |-X------X------5----------------------------|
Intro/Main Riff - Chords ~STRUM~
|-0------0---0------| |-5------10--12-----| |-3------8---10-----| |-0------0---0------| |-0------0---0------| |-0------0---0------|
Intro/Main Lead (Kevin): Listen for Whammy Bar Dives
|------------------------------------------------------------| |------------------------------------------------------------| |-------------------12-----------12-13-15---------13---------| |----12-14----12-14--------12-14----------12--14-------------| |-12-------12-----------12-----------------------------------| |------------------------------------------------------------|
Synth/Sample Backing Melody:
|-15--15--15--15h16-15--15--15--15h16-15---15---| |---17--17--17--------17--17--17---------17-----| |-----------------------------------------------| |-----------------------------------------------| |-----------------------------------------------| |-----------------------------------------------|
End Chord:
|-0-| |-3-| |-1-| |-0-| |-0-| |-0-|
~~~~~~~~~~~~~~+~~~~~~~~~~~~~~~
Please rate this tab:
x1.0