Opeth - A Fair Judgement tab

Legend:
.  - palm mute                     
b  - bend                         
h  - hammer on                    
p  - pull off                     
X  - percussion note                    
~  - vibrato
/  - slide up/down to

Tuning:(E,A,D,G,B,E)

Part 1:Intro(8 times)|-------------||-5~------0~--||-2~------2~--||-2~------1~--||-0~------2~--||-------------|
Part 2(2 times)|----------------------------------------------------------||----------------------------------------------------------||----------------------------------------------------------|Gtr1|--2------4------5------7--x-4-2------4------5------9-9/10-||--2------4------5------7--x-4-2------4------5------9-9/10-||--0------2------3------5--x-2-0------2------3------7-7/8--|
|
|----------------------------------------------------------||----------------------------------------------------------||-/9~------------------------------------------------------|Gtr2|---------9~----12-----------7-7h9-9~----------------------||------------------10-9-7~-7-------------------------------||----------------------------------------------------------|
|----------------------------------------------------------||----------------------------------------------------------||----------------------------------------------------------|Gtr1|--2------4------5------7--x-4-2------4------5------9-9/10-||--2------4------5------7--x-4-2------4------5------9-9/10-||--0------2------3------5--x-2-0------2------3------7-7/8--|
|
|----------------------------------------------------------||----------------------------------------------------------||-/9~------------------------------------------------------|Gtr2|---------9~----12-----------7-7h9-------------------------||------------------10-9-7~-7-------7~----------------------||----------------------------------------------------------|
================================
Gtr2 (last time only)|-----------------------------------------------------||-/5-4h5p4---4---4-5-7-10-8-7-5~----------------------||----------4---4--------------------------------------||-----------------------------------------------------||-----------------------------------------------------||-----------------------------------------------------|
Part 1(8 times) Part 2(2 times)
Gtr2 (last time only)|-----------------------------------------------------||-----------------------------------------------------||-9--9-9--9-7--7-7--7-4--4-4--4-5--5-5--5-12--12-12---||-----------------------------------------------------||-7--7-7--7-5--5-5--5-2--2-2--2-3--3-3--3-10--10-10---||-----------------------------------------------------|
|---------------------||---------------------||-12-11--11-11--11-12-||---------------------||-10--9---9--9---9-10-||---------------------|
=================================
Part 3(2 times)|-------0-----------0-----------0-----------0---------||-----0---0-------0---0-------0---0-------0---0-------||---0-------0---0-------0---0-------0---0-------0---0-||-4-----------4-----------5-----------7-----------9---||-----------------------------------------------------||-----------------------------------------------------|
|---------------0----------------||---0---------0-------0----------||---------0---------0-----0------||-7---5-4---4-----7-----5---4/2~-||--------------------------------||--------------------------------|
|-------0-----------0-----------0-----------0---------||-----0---0-------0---0-------0---0-------0---0-------||---0-------0---0-------0---0-------0---0-------0-----||-4-----------4-----------5-----------7---------------||-----------------------------------------------------||-----------------------------------------------------|
|-----------------0----------------||-8---7---5-3-------3-/3---3-2-0~--||---0---0-----0----------0---------||-9---7---5-4---4-----/5-----4-2~--||----------------------------------||----------------------------------|
=====================================
Part 4|---------0-2-3-5---7---8-7-5-------------------------||-------0---------0---0-------8-7p5-8p7-5h7-8/10-11---||-----2---------------------------------------------0-||---1-----------4---5---------------------------------||-2---------------------0------------------------10---||-------------0---------------------0-----------------|
|-----------------------------0------||-8---5---------------------3---3----||---0---0-4---5-----------0-------3~-||-----------0---0---0---3------------||-7---4-----------0---1--------------||---------3---2----------------------|
==============================Part 5(6 times)|-----------------------------------------------------||-----6---6------5---6--------------------------------||-----7---7------7---7------7---7------7---9------3---||---7----------7------------8---8------7---7------5---||-5-----5----5-----5------8----------7----------5-----||-----------------------6-----6----5-----5----3-----3-|
|-----------------------------||-----------------------------||-3------0-----0-----0--------||-5----0-----0-----0-----0----||-----------------------------||----1-----3-----6-----5---8--|
==============================Solo 1|-----------------------------------------------------||-----------------------------------------------------||---------------------5---5h7p5-----------------------||-----------3---3h5/7---7-------5p3p0-3/5-5/7~-5/3----||-/5~-0h3h5---5---------------------------------------||-----------------------------------------------------|
|-------------------------------10h12-13p12-10h12p10--||--------------------------8/10-----------------------||-----5/7-10-9-7-9h10p9-7~----------------------------||-3/5-------------------------------------------------||-----------------------------------------------------||-----------------------------------------------------|
|-8/10-10~-10-10/8~----------------------13------------------||-------------------10----------------10----10/8-------------||----------------------10h12h14p12p10------------10/12-10p9~-||------------------------------------------------------------||------------------------------------------------------------||------------------------------------------------------------|
===================================Part 6(4 times)|-----------------------------------||---2-0-3---3-3---3-3---3-3---3-----||-------0---0-0---0-0---0-0---0-----||---------2-----2-----2-----2-------||-2-----------------------------0---||-----------------------------------|
===================================Part 7(4 times)|---2--2---0--0--------------------||---3--3---0--0--------------------||---4--4---0--0--------------------||---4--4---2--2--------------------||-2--------2--2--/7-7--7-5p4-4~----||--------0-------------------------|
|---2--2---0--0-----------------------||---3--3---0--0-----------------------||---4--4---0--0-----------------------||---4--4---2--2-----------------------||-2--------2--2--/7-7--5p4--------1-1-||--------0-----------------7-6-2--2-2-|
. .=======================================Solo 2|--------------------------------------------------||-------------------------------------19-----------||-------------16-18h19p18-16-18h19/21----19/16-----||----------16----------------------------------16~-||-14-16-17-----------------------------------------||--------------------------------------------------|
|-------------------------------------------------------||-------------------------------------------------------||-14~-16------------------------------------------------||--------14p12/14~-------14-16~-19-17-16h17p16----16h17-||------------------14-17-----------------------19-------||-------------------------------------------------------|
|------------------------------------------------------------||------------------------------------------------------------||---------------------------------------------16-19-18h19p18-||---------------------------------------14h16----------------||-19-17h19p17-16h17~-16h17p16-14~-12/14----------------------||------------------------------------------------------------|
|---------------------------------------------------------||---------------------------------------------------------||-14/16-16~-16-14----14--------------------------14-------||-----------------16----16h19p16-14h16p14-12/14b----16p14-||---------------------------------------------------------||---------------------------------------------------------|
|---------------14b-12~-12h14-15-14-12h14p12----12-------------||--------------------------------------------15----15-14h15p14-||--------------------------------------------------------------||----14--------------------------------------------------------||-17----17/16~-------------------------------------------------||--------------------------------------------------------------|
|----------------12------------------------------------------||-12h14-12-14h15----15p14-15p14p12---------------------------||----------------------------------11~------------9-11b-11-9-||---------------------------------------11/9/11/9------------||------------------------------------------------------------||------------------------------------------------------------|
|-------------------------------------------------------||-12-10~------------------------------------------------||--------12-11h12p11-12-11h12p11p9-11-8-----------------||---------------------------------------12-11-11h12/16~-||-------------------------------------------------------||-------------------------------------------------------|
|-------------------------------------------------------------------||-------------------------------------------------------------------||-16b-16b-16b-16b-16b-16b-------------------------------------------||---------------------16-19p18-16--------------16-19p18-16----16/18-||---------------------------------17-17/19-----------------17-------||------------------------------------------19~----------------------|
|------------------------------------------------------------||---------------------------------------15-------15-------15-||---------------------------------13h14----13h14----13h14----||-19-18-16-19p18-16------------------------------------------||-------------------17-17/19-14~-----------------------------||------------------------------------------------------------|
|-------------------------------------------------------------||----------15-------------------------------------------------||-14-13-------16----------------------------------14----------||-------16-------16-12----------------14-17-14-16----16-14----||----------------------14----------14----------------------17-||-------------------------14-12-15----------------------------|
|----------------------------------------------------------------------------||----------------------------------------------------------------------------||----------------------------------------------------------------------------||-14/16/14----16/17/16----------------------------12----12-14-12-14-16-14-16-||----------17-------------------12----12-14-12-14----14----------------------||----------------------14-12-14----14----------------------------------------|
|----------------------------------------------------------||-------------------15----------------------------------15-||-14h16-16-16-16-16----16-16-16-16-16-14h16-16-16-16-16----||----------------------------------------------------------||----------------------------------------------------------||----------------------------------------------------------|
|----------------------------------14----------------------||-------------------------------------15-------------------||-16-16-16-16-16-14h16-16-16-16-16-------16----------------||-------------------------------------------16-------------||----------------------------------------------17-16h17p16-||----------------------------------------------------------|
|-------------14----------15-17-14-||----------15----15/17-14----------||-------16-------------------------||----16----------------------------||-14-------------------------------||----------------------------------|
===================================Part 8(under solo)|--------------------------------||--------------------------------||-4-7-0--4-7-9--4-7-9-11-4-----9-||-4-7-2--4-7-9--4-7-9-11-4-2-4-9-||-2-5-2--2-5-7--2-5-7--9-2-2-4-7-||-----0--------------------0-2-0-|
==================================Part 9(fade out after 6 times)|----------------------------------------------------------------||----------------------------------------------------------------||------------9-9---9-8-------------------------------------------||-5--4--2----9---9---8--10-7-4---8--7--4-4------8--7-----4-3-----||-5--4--2-/7-7-------6--10-7-4---8--7--4-4--4-4-8--7-7-7-4-3-3-3-||-3--2--0----------------8-5-2---6--5--2-2--2-2-6--5-5-5-2-1-1-1-|
Tap to rate this tab
 
# A B C D E F G H I J K L M N O P Q R S T U V W X Y Z