Opeth - Masters Apprentices tab

Masters apprentices
By : Opeth
Album : Deliverance
Transcribed by: Alvaro Ramirez
Email me for any corrections or comments.  lazyguitarist@musician.net
Tune guitar to (EADGBE)

.  - palm mute      \  - slide down to
/  - slide up to    b  - bend
h  - hammer on      x  - percussion mute
p  - pull off       ph - pinch harmonic
*  - staccato


Intro|-------------------------------------||-------------------------------------||-------------------------------------||-3--2---x--2--2--2--2----------------||-3--2---x--2--2--2--2----------------||-1--0---x--0--0--0--0--1--0--1/4--5--| . . . .
|---------------------------------------------||---------------------------------------------||---------------------------------------------||-2-2---3--2---x--2--2--2--2------------------|intro 2 x|-2-2---3--2---x--2--2--2--2------------------||-0-0---1--0---x--0--0--0--0--1--0--1/4--5--8-| . . . . . .
Riff 1|------------------------------------------||------------------------------------------| repeat riff 1|------------------------------------------| and 2 several times|-2-2--3--2---x--2--2--2--2----------------||-2-2--3--2---x--2--2--2--2----------------||-0-0--1--0---x--0--0--0--0--1--0--1/4--5--| . . . .
Riff 2|---------------------------------------------||---------------------------------------------||---------------------------------------------||-2-2---3--2---x--2--2--2--2------------------||-2-2---3--2---x--2--2--2--2------------------||-0-0---1--0---x--0--0--0--0--1--0--1/4--5--8-| . . . . . .
Riff 3|----------------------------------------------------------------||----------------------------------------------------------------||----------------------------------------------10-10-10-10-10-10-||-9--9---9-x--9--9---9-x--9--9---9-x--7-7\6-6--10-10-10-10-10-10-| 4x|-9--9---9-x--9--9---9-x--9--9---9-x--7-7\6-6--8--8--8--8--8--8--||-7--7---7-x--7--7---7-x--7--7---7-x--5-5\4-4--------------------|
Go back to riff 1 and 2 and repeat several times
|-----------------------------------------------------------||-----------------------------------------------------------||-----------------------------------------------------------||-2-2--3--2---x--2--2--2--2---------------------------------||-2-2--3--2---x--2--2--2--2----------------7-----5--6--5----||-0-0--1--0---x--0--0--0--0--1--0--1/4--5-----5-----------5-| . . . . . .
Riff 4 both guitars|-----------------------------------------------------------||-----------------------------------------------------------||-----------------------------------------------------------||-----------------------------------------------------------||---------------------------------8-----6\5-----------ph----||-1--0--0-0--3--4--0--4--6--7--7-----5-------5--6--5--3-----| . . . .
Riff 5 both guitars|-----------------------------------------------------------||-----------------------------------------------------------||-----------------------------------------------------------||-----------------------------------------------------------|3x|------------------------------8-----6\5-----------ph-------||-0--0-0--3--4--0--4--6--7--7-----5-------5--6--5--3--------| . . . .
Riff 6 this riff is done 6 x . but the first time one guitar. then 2.|------------------------------------------------------------||------------------------------------------------------------||------------------------------------------------------------||------------2-----2----6-6----------------------------------||-/7-6-------2-----2----x-x-----/7-6-------------------------||-/8-7--0-0--0--0--0--3-4-4--0--/8-7--0-0--/6--5--4--4--6--0-| . . . . .
Riff 7a guitar 1 (mikael)|--------------------------------------||--------------------------------------||--------------------------------------|2x|-------6-----9--7-----6---------------||-7--8-----8--------8------8--7--6~----||-----------------------------------7h-|
Riff 7b guitar 2 (peter)|------------------------------------------||------------------------------------------||------------------------------------------||------------------------------------------|4x|-2-2-2--2-2--2-2-2--------1b------0--2--5-||-0-0-0--0-0--0-0-0--1--0-----0-0----------| . . . . . . . . . .
go back and do riff 6 four times go back and do riff 7a two times and do riff 7b 3 times but on the 4th time both guitars do riff 8
Riff 8 both guitars|--------------------------------------------------||--------------------------------------------------||--------------------------------------------------||-5-5--7-7-7--9-9-9--10-10-10--12-12-12-12--13-14--||-3-3--7-7-7--9-9-9--10-10-10--12-12-12-12--13-14--||-3-3--5-5-5--7-7-7--8--8--8---10-10-10-10--11-12--|
Riff 9 both guitars|---------------------------------------------------||---------------------------------------------------||-2--2--x--2--x--2--2--x--2--x----------------------||-2--2--x--2--x--0--0--x--0--x--4--4--x--4--x--3--3-|2x|-0--0--x--0--x--2--2--x--2--x--3--3--x--3--x--3--3-||-------------------------------2--2--x--2--x--1--1-|
Riff 10 both guitars|-----------------------------------------------||-----------------------------------------------||-10--10--10--9--9--9--10--10--7--13--13--11--7-||-9---9---9---8--8--8--9---9---6--12--12--10--6-|4x|-8---8---8---7--7--7--8---8---5--11--11--9---5-||-----------------------------------------------|
Go back and repeat riff 9 one time.
Riff 11 both guitars|------------------------------------------------||------------------------------------------------||-2--2--x--2--x--2--2--x--2--x-------------------||-2--2--x--2--x--0--0--x--0--x--4--4--x--4--x--2-||-0--0--x--0--x--2--2--x--2--x--3--3--x--3--x--2-||-------------------------------2--2--x--2--x--0-|
Riff 12Acoustic (Peter)|--0--|--0--||--0--|--0--||--5--|--0--| strum these chords|--7--|--5--||--0--|--7--||--0--|--0--|
Riff 12 (mikael) Clean guitar|-7h---7--8--7~--10--8--10--10--7h-----------------||--------------------------------------------------||--------------------------------------------------||--------------------------------------------------||--------------------------------------------------||--------------------------------------------------|
Riff 13 (acoustic)|-x---x---x---x---x---0---0---0---0---||-7---7---7---7---7---5---5---5---5---| strum these chords|-5---5---5---5---5---6---6---6---6---|8x|-7---7---7---7---7---6---6---6---6---||-0---0---0---0---0---4---4---4---4---||-0---0---0---0---0---0---0---0---0---|
Riff 14 (acoustic)|--x---0---x---0---0---||--x---0---x---0---0---||--4---4---4---4---0---||--4---4---4---4---4---|Strum these chords|--2---2---2---2---4---||--0---0---0---0---2---|
Riff 15 (acoustic)|-----0----------4---0--0-------||-----0----------4---0--0-------||-----0----------4---4--4-------|strum|-6---6------x---6---5--5-------||-6---6------x---6---5--5-------||-4---4---0--x---4---3--3-------|
Riff 16 (acoustic)|-0--0--0--0---0--0--0--0--0--------||-0--0--0--0---0--0--0--0--0--------|strum.|-0--0--0--0---0--0--0--0--0--------||-9--9--9--9---7--7--7--7--7--------|4x|-9--9--9--9---7--7--7--7--7--------||-7--7--7--7---5--5--5--5--5--------|
Riff 17 (acoustic)|-0--0--0--0---0--0--0--0--||-0--0--0--0---5--5--5--5--||-0--0--0--0---6--6--6--6--|4x|-7--7--7--7---6--6--6--6--||-7--7--7--7---4--4--4--4--||-5--5--5--5---0--0--0--0--|
Riff 18(electric)both guitars|------------------------------||------------------------------||------------------------------||-4----4----4----4----4----4---||-3----3----3----3----3----3---||-2----2----2----2----2----2---| * * * * * *
Riff 19 both guitars|------------------------------||------------------------------||------------------------------||------------------------------||------------------------------||-0--2--3--2--0--3--5--6~------|
solo (mikael) time 4/4
|----------------------------------------||----------------------------------------||--------------/11---9--11~-12p9h--------||----7--9--12----------------------------||-7--------------------------------------||----------------------------------------|
|----------------------------------------||----------------------------------------||--------------/11---9--11~-12p9h--------||----7--9--12----------------------------||-7--------------------------------------||----------------------------------------|
|----------------------------------------||----------------------------------------||--------------/11---9--11~-12p9h--------||----7--9--12----------------------------||-7--------------------------------------||----------------------------------------|
|----------------------------------------||----------------------------------------||--------------/11---9--11~-12p9h--------||----7--9--12----------------------------||-7--------------------------------------||----------------------------------------|
|-/10-10-10-10-10-10-10-10--10-10-10-10-10-10-10-10-10-10-||-/12-12-12-12-12-12-12-12--11-11-11-11-11-11-11-11-11-11-||---------------------------------------------------------||---------------------------------------------------------||---------------------------------------------------------||---------------------------------------------------------|
|-----------------------------------7--------------------------------------||-7h8p--------------10b-8--------------7--------5--7--8h-7h8--10--12~-15b~-||------9-7----------------9h--9--11-------9--7-----------------------------||----------7---------------------------------------------------------------||------------7/8~----------------------------------------------------------||--------------------------------------------------------------------------|
Rhythm over the solo.(peter)
|------------------------------------------------------||------------------------------------------------------||------------------------------------------------------||------------------------------------------------------||------------------------------------------------------||-0-10-12--0-10-12--0-10-12--0-10-12--0-10-12--0-10-12-|
|------------------------------------------------------||------------------------------------------------------||------------------------------------------------------||------------------------------------------------------||------------------------------------------------------||-0-10-12--0-10-12--0-10-12--0-10-12--0-10-12--0-10-12-|
|------------------------------||------------------------------||------------------------------||------------------------------||------------------------------||-0--2--3--2--0--3--5--6~------|
Riff 19 (peter) strum up and down. repeat this many times.|------------------------------------------------------------------||------------------------------------------------------------------||-9--9--9--9--9/11-11-11-11/12-12-12-12/16-16-16-16\14-14-14-14\12-||-8--8--8--8--8/10-10-10-10/11-11-11-11/15-15-15-15\13-13-13-13\11-||-7--7--7--7--7/9--9--9--9-/10-10-10-10/14-14-14-14\12-12-12-12\10-||------------------------------------------------------------------|
|-------------------||-------------------||-------------------||-11-11-11-11-11-11-||-10-10-10-10-10-10-||-9--9--9--9--9--9--|
|------------------------------------------------------------------------------||------------------------------------------------------------------------------||-9--9--9--9--9/11-11-11-11/12-12-12-12/16-16-16-16\14-14-14-14\-11-9-9-9-9----||-8--8--8--8--8/10-10-10-10/11-11-11-11/15-15-15-15\13-13-13-13\-10-8-8-8-8----||-7--7--7--7--7/9--9--9--9-/10-10-10-10/14-14-14-14\12-12-12-12\-9--7-7-7-7----||------------------------------------------------------------------------------|
Riff 19 (mikael)strum up and down repeat this many times|------------------------------------------------||------------------------------------------------||-9--9--9--9--9--9--9--9--9--9--9--9--9--9--9--9-||-9--9--9--9--9--9--9--9--9--9--9--9--9--9--9--9-||-7--7--7--7--7--7--7--7--7--7--7--7--7--7--7--7-||-------------------8--8--8--8--8--9--9--9--9--9-|
|---------------------------------------||---------------------------------------||---------------------------------------||-12--12--12--12--12--12--12--12--12--7-||-10--10--10--10--10--10--10--10--10--7-||-12--12--12--12--12--11--11--11--11--5-|
Tap to rate this tab
 
# A B C D E F G H I J K L M N O P Q R S T U V W X Y Z