Coma tab with lyrics by Overkill - Easy chords and tabs for guitar

Overkill – Coma tab

Song: Coma
Band: Overkill
Album: Horrorscope (1991)

-----------------------------------------
     http:\\members.xoom.com\h_msd
-----------------------------------------
  Tabbed by: Hugo_MSD (aka Mr.Crowley)
     e-mail: h_msd@hotmail.com
-----------------------------------------


tune down 1/2 step


|--------------------------------------------------------------------------|--------------------------------------------------------------------------|----9--9-----8--8-----7--7-----6--6-----9--9-----8--8-----7--7-----6--6---|---7--7-7---7--7-7---7--7-7---7--7-7---7--7-7---7--7-7---7--7-7---7--7-7--|--------------------------------------------------------------------------|-5--------5--------5--------5----5\3/5--------5--------5--------5-----(5)\
|-----------------------------------------------------------------------|----8--8----8---8----8---8----8---8-----8--8-----8--8----8---8---8---8-|---9--9-9----9-9-9----9-9-9----9-9-9---9--9-9---9--9-9----9-9-----9-9--|-----------------------------------------------------------8-------8---|-----------------------------------------------------------------------|-0--------6--------5--------6--------0--------0--------6-------6-------
|--------------------------------------------------------------------------|---8---8---8---8-----8--8--8--8--8--8--8--8----------8--8-----------------|----9-9-----9-9-----9--9--9--9--9--9--9--9----------9--9-9----------------|-----7-------7------------------------------------------------------------|--------------------------------------------------------------------------|-5-------5---------6--5--6--5--6--5--6--5--6-5-3-2-0------0---------------
|----------------------------------------------------------------------------||----------------------------------------------------------------------------||----9--9-----8--8-----7--7-----6--6-----9--9-----8--8-----7--7-----6--6-----||---7--7-7---7--7-7---7--7-7---7--7-7---7--7-7---7--7-7---7--7-7---7--7-7----||----------------------------------------------------------------------------||-5--------5--------5--------5----5\3/5--------5--------5--------5--------5_-|
||--------------------------------------||||--------------------------------------||||.------------------------------------.||||.-7------7------7------7------5--7/8-.||||--7------7------7------7------5--7/8--||||--5-5555-5-5555-5-5555-5-5555-3--5/6--|| (4 times)
||---------------------------------------------------------------||||--------------------------11-10--------------------------------||||.-------------------------10--9-------------------------------.||||.-2------------------------8--7--2------------------------7-8-.||||--2------------------------------2------------------------7-8--||||--000000000000000000000000-------000000000000000000000000-5-6--||
||-----------------------------------------------||||-----------------11-----------------10--10/11--||||.----------------10------------------9---9/10-.||||.-9---9---9-------8--9---9---9-------7---7/-8-.||||--7---7---7----------7---7---7-----------------||||--000-000-000000-----000-000-000000------------||
(4 times) Sleeping with a time bomb rumble in my dreams Innocence been long gone fall apart at the seams Walking through the windows, walking through the doors I can't help this feeling, been here before Everything is different, everything the same I know the rules, I played the game
___ ___ ___ |1.3. |2. |4.||----------------------|----------------||----------------||----------------||||----------------------|----------------||----------------||----------------||||.--------9------------|---------------.|/10-9-7--9-7----.|/10-9-7--9-7----.||||.-11------9---11------/10-9-7--9-7----.||------10---9-10.||------10---10-9.||||---999999--13--9999999|------10---9-10-||----------------||----------------||||----------------------|----------------||----------------||----------------|| <- - - 3x - - -> Cry out - tell me what it's gonna be Reach out - is everything the same Cry out - tell me what you really see Reach out - as a coma steals my name
||--------------------------------------||----------------------------------|||--------------------------------------||----------------------------------|||.------------------------------------.||----------------------------------|||.-7------7------7------7------5--7/8-.||-7------7------7------7-------7-8-|||--7------7------7------7------5--7/8--||-7------7------7------7-------7-8-|||--5-5555-5-5555-5-5555-5-5555-3--5/6--||-5-5555-5-5555-5-5555-5-5555--5-6-| (3 times)
||-----------------------------------------------||||-----------------11-----------------10--10/11--||||.----------------10------------------9---9/10-.||||.-9---9---9-------8--9---9---9-------7---7/-8-.||||--7---7---7----------7---7---7-----------------||||--000-000-000000-----000-000-000000------------||
(4 times) Wake to an explosion nothing seemed so real Innocence corroding alone is all i feel Reaching out to no one, knowing no one is there afraid to be afraid, of another nameless fear I got all the reasons, don't need no more blinded by illusion, locked behind the door
___ ___ ___ |1.3. |2. |4.||----------------------|----------------||----------------||----------------||||----------------------|----------------||----------------||----------------||||.--------9------------|---------------.|/10-9-7--9-7----.|/10-9-7--9-7----.||||.-11------9---11------/10-9-7--9-7----.||------10---9-10.||------10---10-9.||||---999999--13--9999999|------10---9-10-||----------------||----------------||||----------------------|----------------||----------------||----------------|| <- - - 3x - - -> Cry out - tell me what it's gonna be reach out - is everything the same cry out - tell me what you really see reach out - as a coma steals my name
___ ___ ___ |1.4. |2. |3.||----------------|---------||------------------------||-------------------||||----------------|---------||------------------------||-------------------||||.---------11_---|-10__---.||-10__-1010101010101010-.||-10__-10-10-10-10_.||||.-9___--xx-9_-xx|--8__---.||--8__--8-8-8-8-8-8-8-8-.||--8__--8--8--8--8-.||||--7___--xx----xx|---------||------------------------||-------------------||||----------------|---------||------------------------||-------------------||
w/ solo||---------------------------------------||||---------------------------------------||||.-9------9------9------9------7--9/10-.||||.-9------9------9------9------7--9/10-.||||--7-7777-7-7777-7-7777-7-7777-5--7/8---||||---------------------------------------||
||---------------------------------------------||||---------------------------------------------||||.-------------------------------------------.||||.-11---------11-----11-11---------11-----12-.||||---99999910p9-99999910--99999910p9-99999910--||||---------------------------------------------||
||------------------------------------------------------------------------||||------------------------------------------------------------------------||||.----------------------------------------------------------------------.||||.-9-----9---9-10-----10---10-12---------12-----12-13---------13-----13-.||||--77777-777-7--88888--888--8-1010101010-101010-10-1111111111-111111-11--||||------------------------------------------------------------------------||
|-----------||-----------||-----------||-6-7___---3||-6-7___---3||-4-5___---1|
||-----------------------------------------------||||-----------------11-----------------10--10/11--||||.----------------10------------------9---9/10-.||||.-9---9---9-------8--9---9---9-------7---7/-8-.||||--7---7---7----------7---7---7-----------------||||--000-000-000000-----000-000-000000------------||
(4 times) Sleeping now forever murdered in my dreams Innocence was never goin' to extremes Busting through the windows, kickin' down the doors standing up for me, never did before Now I lay me down to sleep, and if I die before I wake ___ ___ ___ |1.3. |2. |4.||----------------------|----------------||----------------||----------------||||----------------------|----------------||----------------||----------------||||.--------9------------|---------------.|/10-9-7--9-7----.|/10-9-7--9-7----.||||.-11------9---11------/10-9-7--9-7----.||------10---9-10.||------10---10-9.||||---999999--13--9999999|------10---9-10-||----------------||----------------||||----------------------|----------------||----------------||----------------|| <- - - 3x - - -> Cry out - tell me what it's gonna be reach out - is everything the same cry out - tell me what you really see reach out - as a coma steals my name
||--------------------------------------||||--------------------------------------||||.------------------------------------.||||.-7------7------7------7------5--7/8-.||||--7------7------7------7------5--7/8--||||--5-5555-5-5555-5-5555-5-5555-3--5/6--|| <- - - - - - -4x- - - - - - - - ->
||---------------------------------------------------------||||---------------------------------------------------------||||.-------------------------------------------------------.||||.-7-----7---7-8-----8---8-10-----10---10-11-----11---11-.||||--7-----7---7-8-----8---8-10-----10---10-11-----11---11--||||--55555-555-5-66666-666-6--88888--888--8--99999--999--9--||
|------------||------------||------------||-7-8____----||-7-8____----||-5-6____----|
No matter the time, I ain't coming alive!
|---------------------------------------------------------------------||---------------------------------------------------------------------||-10-9-7---9-7----10-9-7---9-7----10-9-7---9-7-----7------------------||-------10----10-9------10----10-9------10----10-9--10-9-7-10-9-----9-||--------------------------------------------------------------10-9-7-||---------------------------------------------------------------------|
|
------------------------------------------| -----------------------------------------| ----------------------------------------| ---------------------------------------| ---8-8-8-8-7-7-7-7--------------------| ------------------8-8-8-8--7-7-3p2-0-|
End!
Please rate this tab:
x1.0