Parkway Drive - Wreckage tab version 2

Parkway Drive - Wreckage
Tabbed By Uther Mott, %99 correct. 
this is my first tab hope you like.
Email, Trigger_time_11@hotmail.com


Guitar 1|-----------------------------------------------------||-----------------------------------------------------||-----------------------------------------------------||-------------------7h8p7-----------------------------| x4|-----------------------------------------------------||-----------------0-------8/10------------------------|
Guitar 2(not %100 sure but sounds okay)|-----------------------------------------------------||-----------------------------------------------------||-------------------9h10p9----------------------------||-----------------------------------------------------| x4|-----------------------------------------------------||-----------------------------------------------------|
Guitar 1|-----------------------------------------------------||-----------------------------------------------------||-----------------------------------------------------||----------7h8p7---7h8p7----8p7-----------------------| x4|-----------------------------------------------------||--------0-------8-------10---------------------------|
Guitar 2|-----------------------------------------------------||-----------------------------------------------------||-----------------------------------------------------||----------9h10p9---9h10p9----10p9--------------------| x4|-----------------------------------------------------||--------0--------8--------10-------------------------|
Both Guitars|-----------------------------------------------------||-----------------------------------------------------||-----------------------------------------------------||---------2h3p2---2h3p2----3p2------------------------| x3|-------0-------3-------5-----------------------------||-------0-------3-------5-----------------------------|
On the fourth time do this|----------------------------------------------------------------------||----------------------------------------------------------------------||----------------------------------------------------------------------||-----2h3p2---2h3p2----------------------------------------------------||---0-------3---------------70-00-000-5-7-000--------------------------||---0-------3-------0h5h8p7-70-00-000-5-7-000--------------------------|
.. ... ... |----------------------------------------------------------------------||----------------------------------------------------------------------|keep|----------------------------------------------------------------------|going|----------------------------------------------------------------------|down|-----------70-00-000-7-5~---------70-00-000-7-5-77---------70-00-000--| ||---0h5h8p7-70-00-000-7-5~-0h5h8p7-70-00-000-7-5-77-0h5h8p7-70-00-000--| \ /
.. ... .. ... .. ...|----------------------------------------------------------------------||----------------------------------------------------------------------||----------------------------------------------------------------------||----------------------------------------------------------------------||--3-7--70-00-000-5-7-000---------70-00-000-7-5~---------70-00-000-----| ||-------70-00-000-5-7-000-0h5h8p7-70-00-000-7-5~-0h5h8p7-70-00-000-----| \ /
.. ... ... .. ... .. ...|----------------------------------------------------------------------||----------------------------------------------------------------------||----------------------------------------------------------------------||----------------------------------------------------------------------||-------------7-5-77---------70-00-000-7-5~----------------------------||-------------7-5-77-0h5h8p7-70-00-000-7-5~----------------------------|
.. ...Both guitars|-----------------------------------------------------||-----------------------------------------------------||-----------------------------------------------------||-----2h3p2---2h3h2---3p2-----------------------------| x4|---0-------3-------5---------------------------------||---0-------3-------5---------------------------------|
Guitar 1|-----------------------------------------------------||-----------------------------------------------------||-----------------------------------------------------||-------7h8p7-----------------------------------------| x4|---000-------8-000-10\-------------------------------||---000-------8-000-10\-------------------------------|
... ...Guitar 2|-----------------------------------------------------||-----------------------------------------------------||-------9h10p9----------------------------------------||-----------------------------------------------------| x4|---000--------8-000-10\------------------------------||---000--------8-000-10\------------------------------|
... ...Both Guitars|-----------------------------------------------------------------||-----------------------------------------------------------------||-----------------------------------------------------------------||-----------------------------------------------------------------||--------------------------------33333333333333335555555555555555-||22222222222222222222222222222222---------------------------------|
|-----------------------------------------------------------------||-----------------------------------------------------------------||-----------------------------------------------------------------||-----------------------------------------------------------------||--------------------------------3333333333333333-5555-5555-------||22222222222222222222222222222222---------------------------------|
.... ....Guitar 1|----------------------------------------------------------||------------------h7h5h5h7h5h5h7h5h8h5h5h8h5h5------------||----------------------------------------------------------||----------------------------------------------------------||----------------------------------------------------------||----------------------------------------------------------|
|----------------------------------------------------------||------------t12p8t12p8t12p8t12p8t12p8t12p8t12p8t12p8------||----------------------------------------------------------||----------------------------------------------------------||----------------------------------------------------------||----------------------------------------------------------|
|----------------------------------------------------------||------------t10p3t10p3t10p3t10p3t10p3t10p3t10p3t10p3------||----------------------------------------------------------||----------------------------------------------------------||----------------------------------------------------------||----------------------------------------------------------|
|----------------------------------------------------------||----------h14h12h12h14h12h12h14h12h16h12h12h16h12h12------||----------------------------------------------------------||----------------------------------------------------------||----------------------------------------------------------||----------------------------------------------------------|
Back to tapping part. do all of this 4 timesGuitar 2|----------------------------------------------------------||----------------------------------------------------------||-----------------------<12>-------------------------------||----------------------------------------------------------||----------------------------------------------------------||----------------------------------------------------------|
|----------------------------------------------------------||----------------------------------------------------------||----------------------------------------------------------||----------------------------------------------------------||-------------------2~---5~--------------------------------||-------------------2~---5~--------------------------------|
|----------------------------------------------------------||----------------------------------------------------------||----------------------------------------------------------||----------------------------------------------------------||-----222--222--222--222--3333333355555555-----------------||-----222--222--222--222-----------------------------------|
... ... ... ...|----------------------------------------------------------||----------------------------------------------------------||----------------------------------------------------------||----------------------------------------------------------| x2|-----222--222--2222222--222--3333333355555555-------------||-----222--222--2222222--222-------------------------------|
... ... ....... ...Both Guitars|-----------------------------------------------------||-----------------------------------------------------||-----------------------------------------------------||-----2h3p2---2h3h2---3p2-----------------------------| x4|---0-------3-------5---------------------------------||---0-------3-------5---------------------------------|
|-----------------------------------------------------||-----------------------------------------------------||-----------------------------------------------------||-----------------------------------------------------||--0~-----------0~-----000-00-------------------------||--0~-----------0~-----000-00-------------------------|
... ..|-----------------------------------------------------||-----------------------------------------------------||-----------------------------------------------------||-----2h3p2---2h3h2---3p2-----------------------------| x3|---0-------3-------5---------------------------------||---0-------3-------5---------------------------------|
|-----------------------------------------------------||-----------------------------------------------------||-----------------------------------------------------||-----2h3p2---2h3h2---3p2-----------------------------| |---0-------3-------5-------0~------------------------||---0-------3-------5-------0~------------------------|
No solo guys sorry, havnt worked it out yet, message me if you have anything to say , thanks guys.
Tap to rate this tab
 
# A B C D E F G H I J K L M N O P Q R S T U V W X Y Z