Rammstein - Rein Raus tab

Artist:           Rammstein
Song:             Rein Raus
Album:            Mutter
Tuning:           Drop D
Transcribed By:   Engel1

Intro|----------||----------||----------||---6666---||---xxxx---||---6666---|
|--------------------------------||--------------------------------||--------------------------------||---------------------xxxx-------||---100-100-1-3-100-1-xxxx-1-3---||---100-100-1-3-100-1-xxxx-1-3---| .. .. .. ....
|----------------------------||----------------------------||----------------------------||----------------------666---||---100-100-1-3-100-10-xxx---||---100-100-1-3-100-10-666---| .. .. .. .
|--------------------------------||--------------------------------||--------------------------------||---------------------xxxx-------||---100-100-1-3-100-1-xxxx-1-3---||---100-100-1-3-100-1-xxxx-1-3---| .. .. .. ....
|----------------------------||----------------------------||----------------------------||----------------------666---||---100-100-1-3-100-10-xxx---||---100-100-1-3-100-10-666---| .. .. .. .
|------------------------------------------||------------------------------------------||------------------------------------------||------------------------------------------||---100-10---100-10---100-100-1-3-100-10---||---100-10---100-10---100-100-1-3-100-10---| .. . .. . .. .. .. .
|-------------------------------------------------||-------------------------------------------------||-------------------------------------------------||-------------------------------------------------||---100-10---100-10---100-100-1-3-100-10-0-1-3----||---100-10---100-10---100-100-1-3-100-10-0-1-3----| .. . .. . .. .. .. . .
|--------------------------------||--------------------------------||--------------------------------||---------------------xxxx-------||---100-100-1-3-100-1-xxxx-1-3---||---100-100-1-3-100-1-xxxx-1-3---| .. .. .. ....
|----------------------------||----------------------------||----------------------------||----------------------666---||---100-100-1-3-100-10-xxx---||---100-100-1-3-100-10-666---| .. .. .. .
|--------------------------------||--------------------------------||--------------------------------||---------------------xxxx-------||---100-100-1-3-100-1-xxxx-1-3---||---100-100-1-3-100-1-xxxx-1-3---| .. .. .. ....
|----------------------------||----------------------------||----------------------------||----------------------666---||---100-100-1-3-100-10-xxx---||---100-100-1-3-100-10-666---| .. .. .. .
|------------------------------------------||------------------------------------------||------------------------------------------||------------------------------------------||---100-10---100-10---100-100-1-3-100-10---||---100-10---100-10---100-100-1-3-100-10---| .. . .. . .. .. .. .
|------------------------------------------------------||------------------------------------------------------||------------------------------------------------------||------------------------------------------------------||---100-100-1-3-100-100-1-3-100-100-1-3-100-1000-1-3---||---100-100-1-3-100-100-1-3-100-100-1-3-100-1000-1-3---| .. .. .. .. .. .. .. ..
|--------------------------------||--------------------------------||--------------------------------||---------------------xxxx-------||---100-100-1-3-100-1-xxxx-1-3---||---100-100-1-3-100-1-xxxx-1-3---| .. .. .. ....
|----------------------------||----------------------------||----------------------------||----------------------666---||---100-100-1-3-100-10-xxx---||---100-100-1-3-100-10-666---| .. .. .. .
|--------------------------------||--------------------------------||--------------------------------||---------------------xxxx-------||---100-100-1-3-100-1-xxxx-1-3---||---100-100-1-3-100-1-xxxx-1-3---| .. .. .. ....
|----------------------------||----------------------------||----------------------------||----------------------666---||---100-100-1-3-100-10-xxx---||---100-100-1-3-100-10-666---| .. .. .. .
|-------------------------------------||-------------------------------------||-------------------------------------||-------------------------------------||---6---5-----------------------------||---6---5---100-100-1-3-100-100-1-3---| .. .. .. ..
|--------------------------------------------------------------||--------------------------------------------------------------||--------------------------------------------------------------||--------------------------------------------------------------||---6---5------------------------------------------------------||---6---5---100-100-1-3-100-100-1-3-100-100-1-3-100-1000-1-3---| .. .. .. .. .. .. .. ...
PreSolo: With Wah|-------------------------------------| Push Wah Pedal Gradualy Up |-------------------------------------| Throughout The PreSolo.|-------------------------------------||---6-6-6-6-6-6-6-6-6-6-6-6-6-6-6-6---||---6-6-6-6-6-6-6-6-6-6-6-6-6-6-6-6---||---6-6-6-6-6-6-6-6-6-6-6-6-6-6-6-6---|
Solo: With Wah|----------------------------------------||---10-99--10-99--10-9--10-9-------------||----------------------------10-9--------||---------------------------------9-9~---||----------------------------------------||----------------------------------------|
^ ^ ^ ^ ^ ^ ^|-----------------------------------------||---10-99--10-99-10-9--10-9-9\13-13-13~---||-----------------------------------------||-----------------------------------------||-----------------------------------------||-----------------------------------------| ^ ^ ^ ^ _ ^ ^ ^
|----------------------------------------||---10-99--10-99--10-9--10-9-------------||----------------------------10-9--------||---------------------------------9-9~---||----------------------------------------||----------------------------------------|
^ ^ ^ ^ ^ ^ ^|-----------------------------------------||---10-99--10-99-10-9--10-9-9\13-13-13~---||-----------------------------------------||-----------------------------------------||-----------------------------------------||-----------------------------------------| ^ ^ ^ ^ _ ^ ^ ^
|-----------------------------------------------------||-----------------------------------------------------||-----------------------------------------------------||-----------------------------------------------------||---100-100-1-3-100-100-1-3-100-100-1-3-100-100-1-3---||---100-100-1-3-100-100-1-3-100-100-1-3-100-100-1-3---| .. .. .. .. .. .. .. ..
|-----------------------------------------------------||-----------------------------------------------------||-----------------------------------------------------||-----------------------------------------------------||---100-100-1-3-100-100-1-3-100-100-1-3-100-100-1-3---||---100-100-1-3-100-100-1-3-100-100-1-3-100-100-1-3---| .. .. .. .. .. .. .. ..
|--------------------------------||--------------------------------||--------------------------------||---------------------xxxx-------||---100-100-1-3-100-1-xxxx-1-3---||---100-100-1-3-100-1-xxxx-1-3---| .. .. .. ....
|----------------------------||----------------------------||----------------------------||----------------------666---||---100-100-1-3-100-10-xxx---||---100-100-1-3-100-10-666---| .. .. .. .
|--------------------------------||--------------------------------||--------------------------------||---------------------xxxx-------||---100-100-1-3-100-1-xxxx-1-3---||---100-100-1-3-100-1-xxxx-1-3---| .. .. .. ....
|----------------------------||----------------------------||----------------------------||----------------------666---||---100-100-1-3-100-10-xxx---||---100-100-1-3-100-10-666---| .. .. .. .
Notation: ^ = Push Wah Pedal Up _ = Pull Wah Pedal Back Then Push Up
Tap to rate this tab
 
# A B C D E F G H I J K L M N O P Q R S T U V W X Y Z