Rammstein - Tier tab version 1

Artist:          Rammstein
Song:            Tier
Album:           Sehnsucht
Tuning:          Standard
ranscribed By:   Engel1


INTRO/OUTRO:(clean)|-5-5-5-5-5--5-5--x-----------5-5-5-5-5--5-5--x------------||-5-5-5-5-5--5-5--x-5--5--x-x-3-3-3-3-3--3-3--x-3--x-3-x-x-||-6-6-6-6-6--6-6--x-5--5--x-x-2-2-2-2-2--2-2--x-4--x-4-x-x-||-7-7-7-7-7--7-7--x-5--5--x-x-0-0-0-0-0--0-0--x-5--x-5-x-x-||-7-7-7-7-7--7-7--x-3--3--x-x-------------------5--x-5-x-x-||-5-5-5-5-5--5-5--x-----------------------------3--x-3-x-x-|
-5-5-5-5-5--5-5--x-----------5-| -5-5-5-5-5--5-5--x-5--5--x-x-3-| -6-6-6-6-6--6-6--x-5--5--x-x-2-| -7-7-7-7-7--7-7--x-5--5--x-x-0-| -7-7-7-7-7--7-7--x-3--3--x-x---| -5-5-5-5-5--5-5--x-------------|
RIFF Aa:(Gtr 1)|---------------------------------------------------------------------||---------------------------------------------------------------------||---------------------------------------------------------------------||-----------------10---9---7/9---------------------10---12---10\9-----||-5h7-----5h7------8---7---5/7-----5h7-----5h7------8---10----8\7-----||-----0-0-----0-0----0---0-----0-0-----0-0-----0-0----0----0------0-0-| . . . . . . . . . . . . . . . .
(Gtr 2)|---------------------------------------------------------------------||---------------------------------------------------------------------||-7/9-----7/9-----10---9---7/9-----7/9-----7/9-----10---12---10\9-----||-x-------x--------x---x---x-------x-------x--------x----x----x-------||-5/7-----5/7------8---7---5/7-----5/7-----5/7------8---10----8\7-----||-----0-0-----0-0----0---0-----0-0-----0-0-----0-0----0----0------0-0-| 3x . . . . . . . . . . . . . . . .
(Gtr 1)|---------------------------------------------------------------------||---------------------------------------------------------------------||---------------------------------------------------------------------||-----------------10---9---7/9---------------------10---12---10\9-9-9-||-5h7-----5h7------8---7---5/7-----5h7-----5h7------8---10----8\7-7-7-||-----0-0-----0-0----0---0-----0-0-----0-0-----0-0----0----0----------|
. . . . . . . . . . . . . .(Gtr 2)|---------------------------------------------------------------------||---------------------------------------------------------------------||-7/9-----7/9-----10---9---7/9-----7/9-----7/9-----10---12---10\9-9-9-||-x-------x--------x---x---x-------x-------x--------x----x----x---x-x-||-5/7-----5/7------8---7---5/7-----5/7-----5/7------8---10----8\7-7-7-||-----0-0-----0-0----0---0-----0-0-----0-0-----0-0----0----0----------| . . . . . . . . . . . . . .
RIFF Ab:(Gtr 1)|---------------------------------------------------------------------||---------------------------------------------------------------------||---------------------------------------------------------------------||-----------------10---9---7/9---------------------10---12---10\9-----||-5h7-----5h7------8---7---5/7-----5h7-----5h7------8---10----8\7-----||-----0-0-----0-0----0---0-----0-0-----0-0-----0-0----0----0------0-0-| . . . . . . . . . . . . . . . .
(Gtr 2)|---------------------------------------------------------------------||---------------------------------------------------------------------||-7/9-----7/9-----10---9---7/9-----7/9-----7/9-----10---12---10\9-----||-x-------x--------x---x---x-------x-------x--------x----x----x-------||-5/7-----5/7------8---7---5/7-----5/7-----5/7------8---10----8\7-----||-----0-0-----0-0----0---0-----0-0-----0-0-----0-0----0----0------0-0-| . . . . . . . . . . . . . . . .
(Gtr 1)|---------------------------------------------------------------------||---------------------------------------------------------------------||---------------------------------------------------------------------||-----------------10---9---7/9---------------------10---12---10\9-9-9-||-5h7-----5h7------8---7---5/7-----5h7-----5h7------8---10----8\7-7-7-||-----0-0-----0-0----0---0-----0-0-----0-0-----0-0----0----0----------| . . . . . . . . . . . . . .
(Gtr 2)|---------------------------------------------------------------------||---------------------------------------------------------------------||-7/9-----7/9-----10---9---7/9-----7/9-----7/9-----10---12---10\9-9-9-||-x-------x--------x---x---x-------x-------x--------x----x----x---x-x-||-5/7-----5/7------8---7---5/7-----5/7-----5/7------8---10----8\7-7-7-||-----0-0-----0-0----0---0-----0-0-----0-0-----0-0----0----0----------| . . . . . . . . . . . . . .
RIFF Aa RIFF B:
|---------------------------------------||---------------------------------------||---------------------------------------||-5/7-----5/7-----7/10-------7/10-------||-5/7-7-7-5/7-7-7-7/10-10-10-7/10-10-10-||-3/5-5-5-3/5-5-5-5/-8--8--8-5-/8--8--8-| . . . . . . . .
-------------------------------------------------| -------------------------------------------------| -------------------------------------------------| -10/12-------10/12-------10/12-12-12-10/12-12-12-| -10/12-12-12-10/12-12-12--8/10-10-10--8/10-10-10-| --8/10-10-10--8/10-10-10-------------------------| . . . . . . . .
------------------------------------------| ------------------------------------------| ------------------------------------------| -5/7-----5/7-----7/10-------7/10-------12-| -5/7-7-7-5/7-7-7-7/10-10-10-7/10-10-10-12-| -3/5-5-5-3/5-5-5-5/-8--8--8-5-/8--8--8-10-| . . . . . . . .
RIFF Ab RIFF C:
|----------------||----------------||----------------||-x-x-x-7/9--7/9-||-x-x-x-7/9--7/9-||-x-x-x-5/7--5/7-| 4x
RIFF Aa RIFF B:
|---------------------------------------||---------------------------------------||---------------------------------------||-5/7-----5/7-----7/10-------7/10-------||-5/7-7-7-5/7-7-7-7/10-10-10-7/10-10-10-||-3/5-5-5-3/5-5-5-5/-8--8--8-5-/8--8--8-| . . . . . . . .
-------------------------------------------------| -------------------------------------------------| -------------------------------------------------| -10/12-------10/12-------10/12-12-12-10/12-12-12-| -10/12-12-12-10/12-12-12--8/10-10-10--8/10-10-10-| --8/10-10-10--8/10-10-10-------------------------| 3x . . . . . . . .
|---------------------------------------||---------------------------------------||---------------------------------------||-5/7-----5/7-----7/10-------7/10-------||-5/7-7-7-5/7-7-7-7/10-10-10-7/10-10-10-||-3/5-5-5-3/5-5-5-5/-8--8--8-5-/8--8--8-| . . . . . . . .
-------------------------------------------| -------------------------------------------| -------------------------------------------| -10/12-------10/12-------10/12-------------| -10/12-12-12-10/12-12-12-10/12-------------| --8/10-10-10--8/10-10-10--8/10-0-0-0-0-0-0-| . . . . . . . . . .
RIFF A:(Gtr 1)|---------------------------------------------------------------------||---------------------------------------------------------------------||---------------------------------------------------------------------||-----------------10---9---7/9---------------------10---12---10\9-----||-5h7-----5h7------8---7---5/7-----5h7-----5h7------8---10----8\7-----||-----0-0-----0-0----0---0-----0-0-----0-0-----0-0----0----0------0-0-| . . . . . . . . . . . . . . . .
(Gtr 2)|---------------------------------------------------------------------||---------------------------------------------------------------------||-7/9-----7/9-----10---9---7/9-----7/9-----7/9-----10---12---10\9-----||-x-------x--------x---x---x-------x-------x--------x----x----x-------||-5/7-----5/7------8---7---5/7-----5/7-----5/7------8---10----8\7-----||-----0-0-----0-0----0---0-----0-0-----0-0-----0-0----0----0------0-0-| 8x . . . . . . . . . . . . . . . .
Tap to rate this tab
 
# A B C D E F G H I J K L M N O P Q R S T U V W X Y Z