Russian Circles - Death Rides A Horse tab

-------------------------------------------------------------------------------
			     DEATH RIDES A HORSE - Russian Circles
-------------------------------------------------------------------------------
http://www.russiancircles.net/
http://www.myspace.com/russiancircles

Tabbed by: Rob30
Email: ??

Tuning: DADGAD


Tapped Riff:

0:24|-h12p0h7-----p0-||--------h12p5---||----------------||----------------| Repeat|----------------||----------------|
Chords played under tapped riff:
0:35|--------------------------------------------------------||--------------------------------------------------------||--------------7~-7--8-8------------7-7--10-10--5-5--3-3-||-/Pick slide-------------6-6--5-5-----------------------||-/------------5~-5--6-6--6-6--5-5--5-5--8--8---3-3--1-1-||-/------------0----------6-6--5-5-----------------------|
-Break (Tapped Riff)-
0:58|---------------------------------------------------------------------------------||---------------------------------------------------------------------------------||--------------7~-7--8-8------------7--7--10-10-9--9--12-12--14-14-15-15-10-10-9--||-/Pick slide-------------6-6--5-5------------------------------------------------||-/------------5~-5--6-6--6-6--5-5--5--5--8--8--7--7--10-10--12-12-13-13-8--8--7--||-/------------0----------6-6--5-5--0---------------------------------------------|
---------------------------|---------------------------|9--14-14-15-15-17-17-19-19-|---------------------------|7--12-12-13-13-15-15-17-17-|---------------------------|
Palm Mute:
1:22|--------------------------------------------------------------------||--------------------------------------------------------------------||--------------------------------------------------------------------||-----7-7--------------7-7--------------7-7--------------7-7---------| Repeat as needed|-5-5-----8-8------5-5-----8-8------5-5-----8-8------5-5-----8-8-----||-------------8-8--------------8-8--------------8-8--------------8-8-|
1:34|--------------------------------------------------------------------||--------------------------------------------------------------------||-5-5--------------5-5-----7-7------5-5------------------------------||-----7-7--------------7-7-----7-7------7-7--------------5-7---------| Repeat as needed|---------8-8-------------------------------8-8------8-8-----7-7-0-0-| |-------------8-8-------------------------------8-8------------------|
Plays overtop:
1:57|--------------------------------------------------------------------||--------------------------------------------------------------------||--------------------------------------------------------------------||-------5-7-5------------5-7-5------------5-7-5------------5-7-5-----| Repeat as needed|-5-5-8-------8-7--5-5-8-------8-7--5-5-8-------8-7--5-5-8-------8-7-||--------------------------------------------------------------------|
Palm Mute
2:18 Harmonics|----------------------------------------<7>-||---------------------------------------<7>--||--------------------------------------<7>---||-0-0-----0-0--0-0--0-0----0-0------0-<7>----||-0-0-----0-0--0-0--0-0----0-0--<5>-0--------||-0-0-----0-0--0-0--0-0----0-0------0--------|
All Tapped. (http://ca.youtube.com/watch?v=yO0bDCtDOfM) * = Right hand
2:28|-h12p0------------------------------------------------||-------h10h12--------------------------h12------------||-----------------h10h12-------------h10--------10-----||-------------*15--------*14p10h12p0--------*14----*14-||------------------------------------------------------||------------------------------------------------------|
|-h12p0-----------h10-*15-p0-h12p0--------*17----------||------h10h12----------------------*15p10--------10----||-------------*15--------------------------------------||---------------------------------------------*14--*14-||------------------------------------------------------||------------------------------------------------------|
2:31|-----------------------*12p8-----------------||-----------------------------h10*12----------||-----------------------------------h10*12----||-8-h10-------h10*12p8--------------------h10-||-8-----*12p0---------------------------------||-8-------------------------------------------|
|------------------------h12-*19p10---------------------||----------------------------------h12*19p10------------||--------------------------------------------h12--------||-10-h12------h12*15p10--------------------------*17p10-||-10----*15p0-------------------------------------------||-10----------------------------------------------------|
2:53|-----------------------------------------||-----------------------------------------||-----------------------------------------||-7-----------*12p7-----------------------||-7-h8*10p7h8-------*12p7h8*10p7h8p7------||-7---------------------------------*12p7-|
2:58|-----------------------||-----------------------||-----------------------||-8-8-8-8-8-8-8-8--3--2-||-8-8-8-8-8-8-8-8--3--2-||-8-8-8-8-8-8-8-8--3--2-|
3:10|---------------------------------------------------------||---------------------------------------------------------||---------------------------------------------------------||-8-8-8-8-8-8-8-8-1-1-1-1-1-1-1-1-13-13-13-13-13-13-13-13-||-8-8-8-8-8-8-8-8-1-1-1-1-1-1-1-1-13-13-13-13-13-13-13-13-||-8-8-8-8-8-8-8-8-1-1-1-1-1-1-1-1-13-13-13-13-13-13-13-13-|
Fast part:3:13|-----------------------------------------------------||-----------------------------------------------------||-----7-8-----3-5---8-8-7-7-----7-8-------------------||---------------------------------------1-4-----4-1-1-||-0-0-5-6-0-0-1-3-0-6-6-5-5-0-0-5-6-0-0-1-4-0-0-4-1-1-||-0-0-----0-0-----0---------0-0-----0-0-1-4-0-0-4-1-1-|
3:31|-------------------------------------||-------------------------------------||-7-5---------------------------------||-----8-7--8-7-5----7-5---------------||-----------------8-----8-7--8-7------||--------------------------------8-10-|
Strum Loosely
3:45|-----15-15-12-12-15-15-12-12--------------------------------------------------||------------------------------10-10-10-10-10-10-10-10-12-12-12-12-12-12-12-12-||-0----------------------------------------------------------------------------||-0----------------------------------------------------------------------------||-0----------------------------------------------------------------------------||-0----------------------------------------------------------------------------|
|-----15-15-12-12-15-15-12-12--17-17-17-17-17-17-17-17-19-19-19-19-19-19-19-19-||------------------------------------------------------------------------------||-0----------------------------------------------------------------------------||-0----------------------------------------------------------------------------||-0----------------------------------------------------------------------------||-0----------------------------------------------------------------------------|
4:07 Harmonics|---------<12>------<7>------<7>~~---------------||--------<12>------<7>------<7>------------------||-0-----<12>------<7>------<7>-------------------||-0----<12----0--<7>----0-<7>-------/------------||-0---<12>--------------------------/-Pick Slide-||-0---------------------------------/------------|
After break:5:10 Repeat.-| End on:|-------------------------|----0~-||-------------------------|----0~-||-8-7-8-7-8-7-8-----8-----|----0~-||-------------------------|----0~-||-6-5-6-5-6-5-6-0-0-6-0-0-|----0~-||---0---0---0---0-0---0-0-|----0~-|
Tap to rate this tab
 
# A B C D E F G H I J K L M N O P Q R S T U V W X Y Z