Russian Circles - Harper Lewis tab

-------------------------------------------------------------------------------
			     HARPER LEWIS - Russian Circles
-------------------------------------------------------------------------------
http://www.russiancircles.net/
http://www.myspace.com/russiancircles

Tabbed by: Rob30
Email: ??

Tuning: Db Ab Db Gb Ab Db 

Listen to song for exact strumming.

1:31|------------------------------------------------------------------||------------------------------------------------------------------||------------------------------------------------------------------||---8-----8-----8-----8-----8--------7-----7-----7-----7-----7-----||-----5-----5-----5-----5-----5--------5-----5-----5-----5-----5---||-5-----5-----5-----5-----5-----5--4-----4-----4-----4-----4-----4-|
|-------------------------------------------------||-------------------------------------------------||-------------------------------------------------||----13-------13-------13-------13-------13-------||-------10-------10-------10-------10-------10----||-10-------10-------10-------10-------10-------10-|
|-------------------------------------------||-------------------------------------------||-------------------------------------------||---12------12------12------12------12------||------10------10------10------10------10---||-9-------9-------9-------9-------9-------9-|
1:53|-----------------------------------------------------------||-----------------------------------------------------------||---------------5-------------------------------------------||---8-----8-----------8-----8--------7---8-----7----8---7---||-----5-----5-----5-----5-----5-----------------------------||-5-----5-----5-----5-----5-----5--4---4---4-4----4---4---4-|
|-------------------------------------------------||-------------------------------------------------||----------------------10-------------------------||----13-------13----------------13-------13-------||-------10-------10-------10-------10-------10----||-10-------10-------10-------10-------10-------10-|
|----------------------------------||----------------------------------||----------------------------------||---12---13-----12----12---13---12-||----------------------------------||-9----9----9-9-----9----9----9----|
2:15|-----------------||-----------------||-------5---------||---7-------8-7-0-||-5---5---6-------||-----------------|
2:27|-------||-------||-2-2-2-||-0-0-0-||-0-0-0-||-0-0-0-|
2:46|-----------------------------------------------------||-----------------------------------------------------||-2-2-2--2-2-2--2-2-2--2-2-2--2-2-2--2-2-2--2-2-2-2-2-||-0-0-0--0-0-0--0-0-0--0-0-0--0-0-0--0-0-0--0-0-0-0-0-||-0-0-0--0-0-0--0-0-0--0-0-0--0-0-0--0-0-0--0-0-0-0-0-||-0-0-0--0-0-0--0-0-0--0-0-0--0-0-0--0-0-0--0-0-0-0-0-|
2:51|------------------------------------------||------------------------------------------||-7-7-7-7-7-7-7-7-7-7-7-7--8-8-8-8-8-8-8-8-||-0-0-0-0-0-0-0-0-0-0-0-0--0-0-0-0-0-0-0-0-||-5-5-5-5-5-5-5-5-5-5-5-5--6-6-6-6-6-6-6-6-||-0-0-0-0-0-0-0-0-0-0-0-0--0-0-0-0-0-0-0-0-|
This is layered in there as well...I think:
|-12-12-12-12-12-12-12-12-12-12-12-12-12-12-12-12--13-13-13-13-13-13-13-13-||--------------------------------------------------------------------------||--------------------------------------------------------------------------||-12-12-12-12-12-12-12-12-12-12-12-12-12-12-12-12--13-13-13-13-13-13-13-13-||--------------------------------------------------------------------------||--------------------------------------------------------------------------|
--Tapped Riff 1-- Video: http://ca.youtube.com/watch?v=EMaQwSCoW5g
Chord 1|----||-5--||-0--||-0--||-5--||-5--|
Strum Chord 1, tap: (Walk those fingers)|------------------------------------||-17p----17p----17p----15p----17p----||------------------------------------||------------------------------------||----17p----17p----17p----15p----17p-||------------------------------------|
Chord 2|----||-8--||-0--||-0--||-8--||-8--|
Slide to Chord 2, tap:|------------------||-17p----17p----17-||------------------||------------------||----17p----17p----||------------------|
Chord 3|----||-10-||-0--||-0--||-10-||-10-|
Slide to Chord 3, tap:|------------------||-17p----18p----17-||------------------||------------------||----17p----18p----||------------------|
--Tapped Riff 2--
Chord 1|----||-5--||-0--||-0--||-5--||-5--|
Strum Chord 1, tap:|------------------------------------||-17p----17p----17p----18p----17p----||------------------------------------||------------------------------------||----17p----17p----17p----18p----17p-||------------------------------------|
Chord 2|----||-8--||-0--||-0--||-8--||-8--|
Strum Chord 2, tap:|------------------||-15p----15p----15-||------------------||------------------||----15p----15p----||------------------|
Chord 3|----||-3--||-0--||-0--||-3--||-3--|
Strum Chord 3, tap:|------------------||-13p----15p----15-||------------------||------------------||----13p----15p----||------------------|
3:58Strum loose|-----||-5~--||-0~--||-0~--||-5~--||-5~--|
4:08|----------------------||----------------------||-12~-10~-7~~slow bend-||----------------------||----------------------||----------------------|
4:20|---------------------------------||-------5-------5-------5-------5-||---0-------0-------0-------0-----||---------------------------------| repeat|-----5-------5-------5-------5---||-5-------5-------5-------5-------|
5:03|---------------------------------------------||---------12-------12/13-------13/10-------10-||---------------------------------------------||-------0-------------------------------------||----12---------12----------13----------10----||-12---------12----------13----------10-------|
5:36|---------------------------------------------------||-12-12-12-12-12-12-12-12--13-13-13-13--10-10-10-10-||-0--0--0--0--0--0--0--0---0--0--0--0---0--0--0--0--||-0--0--0--0--0--0--0--0---0--0--0--0---0--0--0--0--||-12-12-12-12-12-12-12-12--13-13-13-13--10-10-10-10-||-12-12-12-12-12-12-12-12--13-13-13-13--10-10-10-10-|
5:53|---------------------------------------------------||-12-12-12-12-12-12-12-12--13-13-13-13--15-15-15-15-||-0--0--0--0--0--0--0--0---0--0--0--0---0--0--0--0--||-0--0--0--0--0--0--0--0---0--0--0--0---0--0--0--0--||-12-12-12-12-12-12-12-12--13-13-13-13--15-15-15-15-||-12-12-12-12-12-12-12-12--13-13-13-13--15-15-15-15-|
|-------------------------------------------------||-17-17-17-17-18-18-18-18-17-17-17-17-15-15-15-15-||-0--0--0--0--0--0--0--0--0--0--0--0--0--0--0--0--||-0--0--0--0--0--0--0--0--0--0--0--0--0--0--0--0--||-17-17-17-17-17-17-17-17-17-17-17-17-15-15-15-15-||-17-17-17-17-17-17-17-17-17-17-17-17-------------|
|-------------------------------------------------||-17-17-17-17-18-18-18-18-20-20-20-20-17-17-17-17-||-0--0--0--0--0--0--0--0--0--0--0--0--0--0--0--0--||-0--0--0--0--0--0--0--0--0--0--0--0--0--0--0--0--||-17-17-17-17-17-17-17-17-17-17-17-17-17-17-17-17-||-17-17-17-17-17-17-17-17-17-17-17-17-17-17-17-17-|
6:08|---------------------------------------------------||-12-12-12-12-12-12-12-12--13-13-13-13--10-10-10-10-||-0--0--0--0--0--0--0--0---0--0--0--0---0--0--0--0--||-0--0--0--0--0--0--0--0---0--0--0--0---0--0--0--0--||-12-12-12-12-12-12-12-12--13-13-13-13--10-10-10-10-||-12-12-12-12-12-12-12-12--13-13-13-13--10-10-10-10-|
vary chords till end.
Tap to rate this tab
 
# A B C D E F G H I J K L M N O P Q R S T U V W X Y Z