Why tab with lyrics by Saintins Son for guitar @ Guitaretab

Saintins Son – Why tab

                                   Why?


this is the song why and is verry easy


(main riff)|---------------------------------------||---------------------------------------||---------------------------------------||--8--8----3--3--3----6--6----8--8--8---||--8--8----3--3--3----6--6----8--8--8---||--6--6----1--1--1----4--4----6--6--6---|
|---------------------------------------||---------------------------------------||---------------------------------------||--8--8----3--3--3----6--6----8--8--8---||--8--8----3--3--3----6--6----8--8--8---||--6--6----1--1--1----4--4----6--6--6---|
|---------------------------------------||---------------------------------------||---------------------------------------||--8--8----3--3--3----6--6----8--8--8---||--8--8----3--3--3----6--6----8--8--8---||--6--6----1--1--1----4--4----6--6--6---|
|---------------------------------------||---------------------------------------||---------------------------------------||--8--8----3--3--3----6--6----8--8--8---||--8--8----3--3--3----6--6----8--8--8---||--6--6----1--1--1----4--4----6--6--6---|
(Chors)|-----------------------------------||-----------------------------------||-----------------------------------||--6---3--3(3)-x-x---8---4--4(4)----||--6---3--3(3)-x-x(x)8---4-x4(4)----||--4---1--1(1)-x-x(x)6---2-x2(2)----|
|-----------------------------------||-----------------------------------||-----------------------------------||--6---3--3(3)-x-x---8---4--4(4)----||--6---3--3(3)-x-x(x)8---4-x4(4)----||--4---1--1(1)-x-x(x)6---2-x2(2)----|
|-----------------------------------||-----------------------------------||-----------------------------------||--6---3--3(3)-x-x---8---4--4(4)----||--6---3--3(3)-x-x(x)8---4-x4(4)----||--4---1--1(1)-x-x(x)6---2-x2(2)----|
|-----------------------------------||-----------------------------------||-----------------------------------||--6---3--3(3)-x-x---8---4--4(4)----||--6---3--3(3)-x-x(x)8---4-x4(4)----||--4---1--1(1)-x-x(x)6---2-x2(2)----|
|-----------------------------------||-----------------------------------||-----------------------------------||--6---3--3(3)-x-x---8---4--4(4)----||--6---3--3(3)-x-x(x)8---4-x4(4)----||--4---1--1(1)-x-x(x)6---2-x2(2)----|
Main Riff
|---------------------------------------||---------------------------------------||---------------------------------------||--8--8----3--3--3----6--6----8--8--8---||--8--8----3--3--3----6--6----8--8--8---||--6--6----1--1--1----4--4----6--6--6---|
|---------------------------------------||---------------------------------------||---------------------------------------||--8--8----3--3--3----6--6----8--8--8---||--8--8----3--3--3----6--6----8--8--8---||--6--6----1--1--1----4--4----6--6--6---|
|---------------------------------------||---------------------------------------||---------------------------------------||--8--8----3--3--3----6--6----8--8--8---||--8--8----3--3--3----6--6----8--8--8---||--6--6----1--1--1----4--4----6--6--6---|
then go back to the chours
Please rate this tab:
x1.0