My World tab with lyrics by Sick Puppies - Easy chords and tabs for guitar

Sick Puppies – My World tab

My World- Sick Puppies
Tabbed by Warren.F
Dropped-D

Verse (X2)(gt1)------------------------------------------------------------------------|------------------------------------------------------------------------|------------------------------------------------------------------------|-----------------------------------------------------5-5-5-5-5-5-5-5----|-5-5-5-5-5-5-5-5--8-8-8-8-8-8-8-8--1-1-1-1-1-1-1-1--3-3-3-3-3-3-3-3-----|5-5-5-5-5-5-5-5--8-8-8-8-8-8-8-8--1-1-1-1-1-1-1-1-----------------------|
verse Gt2
-------------------------------------------|-------------------------------------------|--10-10-10-10-10-10--7-7--8-8-8-8-8-8--7-7-|-------------------------------------------|-------------------------------------------|-------------------------------------------|
--------------------------------------------|--------------------------------------------|--10-10-10-10-10-10-10-10--8-8-8-8--7-7-7-7-|--------------------------------------------|--------------------------------------------|--------------------------------------------|
Chorus (GT 1&2)---------------------------------|---------------------------------|---8-----------------------------|---8-----10-----5-----7--8-------|---6-----10-----5-----7--8-------|---------10-----5-----7--8-------|
---------------------------------- ----------------|---------------------------------- ----------------|---8------------------------------ -----8------5---|---8-----10-----5-----7---88--8-7- -----8------5---|---6-----10-----5-----7---88--8-7- -----6------3---|---------10-----5-----7---88--8-7- ----------------|
Repeat first verse repeat chorus
Bridge (GT 2)------------------------------------------------------------------------|------------------------------------------------------------------------|-8---8---8---8---7---7---7---7---10---10---10---10---10---10---10---7---|---8---8---8---8---8---8---8---8----8----8----8----8----8----8----8---8-|------------------------------------------------------------------------|------------------------------------------------------------------------|
------------------------------------------------------------------------|------------------------------------------------------------------------|-8---8---8---8---7---7---7---7---10---10---10---10---10---10---10---10--|---8---8---8---8---8---8---8---8----8----8----8----8----8----8----8---8-|------------------------------------------------------------------------|------------------------------------------------------------------------|
--------------------------------------------------|--------------------------------------------------|-10---10---10---10---10---10---10---10------8-----|----8----8----8----8----8----8----8---------8-----|--------------------------------------------6-----|--------------------------------------------------|
Solo (gt2)-------------------------------------------------------------------------|-8---10-10-10-10-10-10-10-10---6-6-6-6--8--10-10-10-10-10-10-10-10-------|-------------------------------------------------------------------5-5-5-|-------------------------------------------------------------------------|-------------------------------------------------------------------------|-------------------------------------------------------------------------|
---------------|---------------|-5-5-7-7-7-7---|---------------|---------------|---------------|
------------------------------------------------------------------------|-8---10-10-10-10--8---13-13-13-13--10-10-10-10--13-13-13-13---6/8---4/6-|------------------------------------------------------------------------|------------------------------------------------------------------------|------------------------------------------------------------------------|------------------------------------------------------------------------|
---------------------------------------|-1/3--1--------------------------------|--------3-3-5----3-5----8-7------------|--------------------------------5------|---------------------------------------|---------------------------------------|
GT 1 during solo
-------------------------------------------|-------------------------------------------|---8---------------------------------------|---8-----10----5----7--8-----1-1-1-1-1-1---|---6-----10----5----7--8-----1-1-1-1-1-1---|---------10----5----7--8-----1-1-1-1-1-1---| (palm mute)
-------------------------------------------|-------------------------------------------|---8---------------------------------------|---8-----10----5----7---8-8---8-7----------|---6-----10----5----7---8-8---8-7----------|---------10----5----7---8-8---8-7----------|
chorus
----------------------------------------------------------------------------|----------------------------------------------------------------------------|---8------------------------------8-----------------------------------------|---8-----10----5----7---8---------8------10----5----7---8-8---8-7-----------|---6-----10----5----7---8---------6------10----5----7---8-8---8-7-----------|---------10----5----7---8----------------10----5----7---8-8---8-7-----------|
----------------------------------------------------------------------------|----------------------------------------------------------------------------|---8------------------------------------------------------------------------|---8-----10----5----7---8------5------8------5------8------5------8---------|---6-----10----5----7---8------5------8------5------8------5------8---------|---------10----5----7---8------5------8------5------8------5------8---------|
---------------------------------------|---------------------------------------|---5------8-----5-5-5-5-5---8-8-8--7---|---5------8-----5-5-5-5-5---8-8-8--7---|---5------8-----5-5-5-5-5---8-8-8--7---|
Please rate this tab:
x1.0