Pain tab with lyrics by Slipknot - Easy chords and tabs for guitar

Slipknot – Pain tab

Slipknot Pain
s=slide
Note: to put the amplifier in distorcion of hoarse form

-------------------------------------|-------------------------------------|-------------------------------------|-------------------------------------|-------3-3-3-3-3-3-3-3-3-s-8-s-3-2-2-|------2-2-2-2-2-2-2-2-2-2-s7-s-2-2-2-|
-------------------------------------|-------------------------------------|-------------------------------------|-------------------------------------|-------3-3-3-3-3-3-3-3-3-s-8-s-3-2-2-|------2-2-2-2-2-2-2-2-2-2-s7-s-2-2-2-|
-------------------------------------|-------------------------------------|-------------------------------------|-------------------------------------|-------3-3-3-3-3-3-3-3-3-s-8-s-3-2-2-|------2-2-2-2-2-2-2-2-2-2-s7-s-2-2-2-|
-------------------------------------|-------------------------------------|-------------------------------------|-------------------------------------|-------3-3-3-3-3-3-3-3-3-s-8-s-3-2-2-|------2-2-2-2-2-2-2-2-2-2-s7-s-2-2-2-|
-------------------------------------|-------------------------------------|-------------------------------------|-------------------------------------|-------3-3-3-3-3-3-3-3-3-s-8-s-3-2-2-|------2-2-2-2-2-2-2-2-2-2-s7-s-2-2-2-|
-------------------------------------|-------------------------------------|-------------------------------------|-------------------------------------|-------3-3-3-3-3-3-3-3-3-s-8-s-3-2-2-|------2-2-2-2-2-2-2-2-2-2-s7-s-2-2-2-|
-------------------------------------|-------------------------------------|-------------------------------------|-------------------------------------|----4--------------------------------|----3--------------------------------|
-------------------------------------|-------------------------------------|-------------------------------------|-------------------------------------|----6--------------------------------|----7--------------------------------|
----10-------------------------------|----11-------------------------------|
-------------------------------------|-------------------------------------|-------------------------------------|-------------------------------------|-------3-3-3-3-3-3-3-3-3-s-8-s-3-2-2-|------2-2-2-2-2-2-2-2-2-2-s7-s-2-2-2-|
-------------------------------------|-------------------------------------|-------------------------------------|-------------------------------------|-------3-3-3-3-3-3-3-3-3-s-8-s-3-2-2-|------2-2-2-2-2-2-2-2-2-2-s7-s-2-2-2-|
-------------------------------------|-------------------------------------|-------------------------------------|-------------------------------------|-------3-3-3-3-3-3-3-3-3-s-8-s-3-2-2-|------2-2-2-2-2-2-2-2-2-2-s7-s-2-2-2-|
-------------------------------------|-------------------------------------|-------------------------------------|-------------------------------------|-------3-3-3-3-3-3-3-3-3-s-8-s-3-2-2-|------2-2-2-2-2-2-2-2-2-2-s7-s-2-2-2-|
-------------------------------------|-------------------------------------|-------------------------------------|-------------------------------------|-------3-3-3-3-3-3-3-3-3-s-8-s-3-2-2-|------2-2-2-2-2-2-2-2-2-2-s7-s-2-2-2-|
-------------------------------------|-------------------------------------|-------------------------------------|-------------------------------------|-------3-3-3-3-3-3-3-3-3-s-8-s-3-2-2-|------2-2-2-2-2-2-2-2-2-2-s7-s-2-2-2-|
Please rate this tab:
x1.0