Suede – These Are The Sad Songs tab

t. See http://www.olga.net/faq/ for more information.                     #
#-----------------------------------------------------------------------------#

Date: Sat, 1 Apr 2000 11:32:30 -0500
From: AAuuddee@aol.com
Subject: s/suede/these_are_the_sad_songs.tab


THESE ARE THE SAD SONGS BY SUEDE
FROM LAZY B-SIDE (1997)
---------------------------------

TABBED BY AAuuddee@aol.com


INTRO AND VERSES:

--------------------------------------------0--------------2---4--2-------2---4--2---------2------2----------2---2------2---2---2------2-----2---2------2---------------------------------------------------------0---------------0-------------------------------------------------------------------2-----------------
-----------2-----0-----------2-----------4--
-----2---2----2------- repeated----------------------------------------------2-------------------
VERSE1: play the verse riff BRIDGE:
-----------------------------------------0--------------2--4--2---2-----2--4--2---2------2---2---2------1---------1-----1---------1------0-------0------2---------------2----------------1------------------------------------------------------------------------------------------------------------------
--------0----------------2---2---2--------0-------0--------1------------------------------------------------------
CHORUS1: let ring GUITAR1:
-----------------------------------------------------------10--10--10--10--10--10--9--9--7--9--7--9--7----(6s)----------------------------------------------------------------------------------------------------------------------------------------------------------------------------------------------------------
--7s9--9--7--9--7--9--7--9--9--7--9--7--------------------------------------------------------10--10--10--10------------------------------------------------------------------------------------------------------------------------------------------------------------------------------------------------------------------------------
--------------------------------------------------------10--10--9--9--7--9--7--9--7--9s10--9-------------------------------------------------------11--11--9-------------------------------------------------------11---------------------------------------------------------------------------------------------------------------
--7--9--11s12--11--9-- repeated but without the (6s) ---------------------- ---------------------- ---------------------- ---------------------- ----------------------
GUITAR2: repeated-----------------------------------2-------------------------2--4--2---------5----------2---2----------7----------2---------2-----6---6------2-------2------8---8----------------------6-------6-----------------9-------9----0-------------4------------------------------------------------------------------2-------------7------------
POST-CHORUS1: a 2nd guitar plays the verse riff in the same time
let ring...------------------------------------------------------2--------2--------------------------------------2---2h1--2---2h1---------1--2h1---------1--1-----------------------4--2--4--------4--2--4--------------------------------------------------------4----------------------------------------------------
--------------------------------------------------------------2--------2----------------------------------------------2---2h1--2---2h1---------1--2h1---------1----------------------------------4--2--4--------4--2--4---4--2--1-----------------------------------------------------------4--0------------------------------------------------------------
VERSE2: play the verse riff BRIDGE:
-----------------------------------------0--------------2--4--2---2-----2--4--2---2------2---2---2------1---------1-----1---------1------0-------0------2---------------2----------------1------------------------------------------------------------------------------------------------------------------
--------0----------------2---2---2--------0-------0--------1------------------------------------------------------
CHORUS2: same as CHORUS1 POST-CHORUS2: let ring
------------------------------------------14----14----16h14--17--16h14--17--19p0--17p0--16p14----17---------------------------------------------------------------------------------------------------------------------------------------------------------------------------------------------------------------------
--------14----14--14----------16p14----17--------17s19-- (x2)----------------------------------------------------------------------------------------------------------------
------------------------------------------14----14----16h14--17--16h14--17--19p0--17p0--16p14----17---------------------------------------------------------------------------------------------------------------------------------------------------------------------------------------------------------------------
--------14-------------------------------16p14----16p14--19--19b20--b20--b20--------------------------------------------------------------------------------------------------------------------------------------------------------------
A second guitar repeats this along in the same time:
--16--16--16--16....-----------------------------------------------------------------------------------------------
----------------------------------------0--------------2--4--2---2-----2--4--2---2-----2---2---2------1---------1-----1---------1-----0-------0------2---------------2---------------1----------------------------------------------------------------------------------------------------------------
-----------------2--2--2--2-----0--0--0--0-----1--1--1--1---------------------------------
CHORUS (x2) OUTRO:
--------------------------------------------------------------10------10------------10-------10-----------10-----------------------------------------------------------9s11----11s9-----9s7--9s11----11s9-----9s7--9s11-------------------------------------------------------------------------------------------------------------------
----------------------------------------10------------12--14--16-- (x6)-----------------------------------11s9----9s7--9s13--------------------------------------------------------------------------------
let ring------------------------------------------------------------------------------------------------------------------14--14--14--13--13s11--11--11s8--8--8s9--9--9s13--13--------------------------------------------------------------------------------------------------------------------------------------------------------------------------
------------------------------------------------------------------------------------------------2--4-----2--4-----2--4----13s11--11--11s14--13--11--18~---2--------2--------2---------------------------------------------------------------------------------------------------0--------0--------0---------------------------------------------------------------------
------------ ------2--4--
----2------- slow down until the end...--------------0---------------------
ENJOY!!
Please rate this tab:
x1.0