Tea Party - Winter Solstice tab

--------------------------------
The Tea Party - Winter Solsitice
--------------------------------

---------------
TUning - CGCGCD <---- IMPORTANT
---------------

one guitar only.
divided into parts.
listen to song and play the right parts.

-------
legend:
-------
NH    - natural harmonic (*)
s     - slide
/     - slide
|-3-| - triplet (3 in one beat)


Intro:----- NH NH H HD||-------------------------|C||---*12---------*7--------|G||---*12---------*7--------|C||---*12---------*7--------|G||---*12---------*7--------|C||---*12---------*7--------|
Part 1: ------
D|---------------------------------------------|C|--------------4p--0-----0-----------0--2h--4-|G|*--------------------0-----------0-----------|C|*--------0--------------------2--------------|G|---/5----------------------3-----------------|C|---------------------------------------------|
|---3-----------------| NH-----------------------------------------------|------------0h--2p--0----4p--2p--0--0-----*12--|------------0-----------------------0-----*12--|------------------------------------------*12--|-------2---------------------------------------|--5--------------------------------------------|
---------------------------------------------|-------------4p--0-----0-----------0--2h--4--|--------------------0-----------0------------|--------0--------------------2---------------|--/5----------------------3------------------|---------------------------------------------|
|---3----------------| NH----------------------------------------------|------------0h--2p--0----4p--2p--0--0-----*7--|------------0-----------------------0-----*7--|------------------------------------------*7--|-------2--------------------------------------|--5-------------------------------------------|
---------------------------------------------|------------0h--2p--0------------------0-----|------------0------------------0----4-----0--|-------------------------------0-------------|-------2-----------------/5------------------|--5------------------------------------------|
---------------------------------------------|------------0h--2p--0----------0-------0-----|------------0-----------------------4-----0--|---------------------------------------------|-------2-----------------/5------------------|--5------------------------------------------|
----------------------------------------------|------------0h--2p--0-------------0--2p--0----|------------0------------------4------------4-|----------------------------4-----------------|-------2-----------------2--------------------|--5-------------------------------------------|
|---3-----------------| NH-----------------------------------------------|------------0h--2p--0----4p--2p--0--0-----*12--|------------0-----------------------0-----*12--|------------------------------------------*12--|-------2---------------------------------------|--5--------------------------------------------|
Part 2: ------
--3S--5--5--5--5S--3--3--3--3S--7--7--7--7S--|--5S--7--7--7--7S--5--5--5--5S--9--9--9--9S--|--0------0--0--0------0--0--0------0--0--0---|--0------0--0--0------0--0--0------0--0--0---|--0------0--0--0------0--0--0------0--0--0---|--x------x--x--x------x--x--x------x--x--x---|
---S---8---8---8---8S--7--7--x--2----3-----8-|---S--10--10--10--10S--9--9--x--4----5----10-|-----------0---0---0------0--0--0----0-----0-|-----------0---0---0------0--0--0----0-----0-|-----------0---0---0------0--0--0----0-----0-|-----------x---x---x------x--x--x----x-----x-|
--3S--5--5--5--5S--3--3--3--3S--7--7--7--7S--|--5S--7--7--7--7S--5--5--5--5S--9--9--9--9S--|--0------0--0--0------0--0--0------0--0--0---|--0------0--0--0------0--0--0------0--0--0---|--0------0--0--0------0--0--0------0--0--0---|--x------x--x--x------x--x--x------x--x--x---|
---S---8---8---8---8S--7--7--x--2----3----2S-|---S--10--10--10--10S--9--9--x--4----5----4S-|-----------0---0---0------0--0--0----0----0--|-----------0---0---0------0--0--0----0----0--|-----------0---0---0------0--0--0----0----0--|-----------x---x---x------x--x--x----x----x--|
--3S--5--5--5--5S--3--3--3--3S--7--7--7--7S--|--5S--7--7--7--7S--5--5--5--5S--9--9--9--9S--|--0------0--0--0------0--0--0------0--0--0---|--0------0--0--0------0--0--0------0--0--0---|--0------0--0--0------0--0--0------0--0--0---|--x------x--x--x------x--x--x------x--x--x---|
---S---8---8---8---8S--7--7--x--2----3-----8-|---S--10--10--10--10S--9--9--x--4----5----10-|-----------0---0---0------0--0--0----0-----0-|-----------0---0---0------0--0--0----0-----0-|-----------0---0---0------0--0--0----0-----0-|-----------x---x---x------x--x--x----x-----x-|
--3S--5--5--5--5S--3--3--3--3S--7--7--7--7S--|--5S--7--7--7--7S--5--5--5--5S--9--9--9--9S--|--0------0--0--0------0--0--0------0--0--0---|--0------0--0--0------0--0--0------0--0--0---|--0------0--0--0------0--0--0------0--0--0---|--x------x--x--x------x--x--x------x--x--x---|
---S---8---8---8---8S--7--7--x--2----3----2S-|---S--10--10--10--10S--9--9--x--4----5----4S-|-----------0---0---0------0--0--0----0----0--|-----------0---0---0------0--0--0----0----0--|-----------0---0---0------0--0--0----0----0--|-----------x---x---x------x--x--x----x----x--|
|---3-----------------| NH-----------------------------------------------|------------0h--2p--0----4p--2p--0--0-----*12--|------------0-----------------------0-----*12--|------------------------------------------*12--|-------2----------------------------------*12--|--5---------------------------------------*12--|
Part 3: -------
|---3---| |--3----------|----------------------------------------------|----------------------------2h--4p-2p-0-------|--0h--2p--0-----0--4--------------------2-----|-------------4-----------------------------4--|----------------------------------------------|----------------------------------------------|
|-3-|---------------------------------------------|---------------------------------------------|---------------------------------------------|--2--4-2-0-----------------------------------|-----------2---------------------------------|--------------4-----5----------------------0-|
Part 4: (Increase Tempo) ------
|---3--------------------------|----------------------------------------------|-----------------------------0--2p--0-----0---|--2p--0-----0--4p--2p--0---------------4------|---------4----------------4-------------------|----------------------------------------------|----------------------------------------------|
|---3--------------------------|----------------------------------------------|-----------------------------0--2p--0-----0---|--2p--0-----0--4p--2p--0---------------4------|---------4----------------4-------------------|----------------------------------------------|----------------------------------------------|
|---3--------------------------|----------------------------------------------|-----------------------------0----------------|--2p--0-----0--4p--2p--0--------2p--0-----0---|---------4----------------4------------4------|----------------------------------------------|----------------------------------------------|
|---3--------------------------|----------------------------------------------|-----------------------------0----------------|--2p--0-----0--4p--2p--0--4-----2p--0-----0---|---------4-----------------------------4------|----------------------------------------------|----------------------------------------------|
Part 5: (Go Crazy) ------
|---3-------------------------|--0----0--------0----------0----0----0--------|--5----4s--(6)--4p--2p--0--0----5----4s--(7)--|--0----0--------0----------0----0----0--------|--0----0--------0----------0----0----0--------|--0----0--------0----------0----0----0--------|--x----x--------x----------x----x----x--------|
|---3--------------------------|--0----0--------0----------0----2----3----3/5--|--5----4s--(7)--4p--2p--0--0----4----5----5/7--|--0----0--------0----------0----0----0------0--|--0----0--------0----------0----0----0------0--|--0----0--------0----------0----0----0------0--|--x----x--------x----------x----x----x------x--|
|---3-------------------------|--0----0--------0----------0----0----0--------|--5----4s--(6)--4p--2p--0--0----5----4s--(7)--|--0----0--------0----------0----0----0--------|--0----0--------0----------0----0----0--------|--0----0--------0----------0----0----0--------|--x----x--------x----------x----x----x--------|
|---3--------------------------|--0----0--------0----------0----2----3----5/7--|--5----4s--(7)--4p--2p--0--0----4----5----7/9--|--0----0--------0----------0----0----0------0--|--0----0--------0----------0----0----0------0--|--0----0--------0----------0----0----0------0--|--x----x--------x----------x----x----x------x--|
|---3---| |---3---------|--0----0----0----------0----0----0----0----------0--|--5----4----4p--2p--0--0----5----4----4p--2p--0--0--|--0----0----0----------0----0----0----0----------0--|--0----0----0----------0----0----0----0----------0--|--0----0----0----------0----0----0----0----------0--|--x----x----x----------x----x----x----x----------x--|
|---3-----------------------------|--0----0----0----------0----2----3-----5/8----|--5----4----4p--2p--0--0----4----5----7/10----|--0----0----0----------0----0----0-------0----|--0----0----0----------0----0----0-------0----|--0----0----0----------0----0----0-------0----|--x----x----x----------x----x----x-------x----|
|---3---| |---3---------|--0----0----0----------0----0----0----0----------0--|--5----4----4p--2p--0--0----5----4----4p--2p--0--0--|--0----0----0----------0----0----0----0----------0--|--0----0----0----------0----0----0----0----------0--|--0----0----0----------0----0----0----0----------0--|--x----x----x----------x----x----x----x----------x--|
|---3-----------------------------|--0----0----0----------0----2----3----2/3-----|--5----4----4p--2p--0--0----4----5----4/5-----|--0----0----0----------0----0----0------0-----|--0----0----0----------0----0----0------0-----|--0----0----0----------0----0----0------0-----|--x----x----x----------x----x----x------x-----|
|---3-----------------------------|--0----0----0----------0----2----3----3/5-----|--5----4----4p--2p--0--0----4----5----5/7-----|--0----0----0----------0----0----0------0-----|--0----0----0----------0----0----0------0-----|--0----0----0----------0----0----0------0-----|--x----x----x----------x----x----x------x-----|
|---3-----------------------------|--0----0----0----------0----2----3----5/7-----|--5----4----4p--2p--0--0----4----5----7/9-----|--0----0----0----------0----0----0------0-----|--0----0----0----------0----0----0------0-----|--0----0----0----------0----0----0------0-----|--x----x----x----------x----x----x------x-----|
|---3-----------------------------|--0----0----0----------0----2----3-----7/8----|--5----4----4p--2p--0--0----4----5----9/10----|--0----0----0----------0----0----0-------0----|--0----0----0----------0----0----0-------0----|--0----0----0----------0----0----0-------0----|--x----x----x----------x----x----x-------x----|
|---3-----------------------------|--0----0----0----------0-----8----10-----8----|--5----4----4p--2p--0--0----10----12----10----|--0----0----0----------0-----0-----0-----0----|--0----0----0----------0-----0-----0-----0----|--0----0----0----------0-----0-----0-----0----|--x----x----x----------x-----x-----x-----x----|
---8----10----10--10--10--10---8----10----10-|--10----12----12--12--12--12--10----12----12-|---0-----0-----0---0---0---0---0-----0-----0-|---0-----0-----0---0---0---0---0-----0-----0-|---0-----0-----0---0---0---0---0-----0-----0-|---x-----x-----x---x---x---x---x-----x-----x-|
--7-----8-----8---8---8---8--7-----8-----8---8-|--9----10----10--10--10--10--9----10----10--10-|--0-----0-----0---0---0---0--0-----0-----0---0-|--0-----0-----0---0---0---0--0-----0-----0---0-|--0-----0-----0---0---0---0--0-----0-----0---0-|--x-----x-----x---x---x---x--x-----x-----x---x-|
--10/12----7----7--7--7--7--10/12----7----7--|-----14----9----9--9--9--9-----14----9----9--|------0----0----0--0--0--0------0----0----0--|------0----0----0--0--0--0------0----0----0--|------0----0----0--0--0--0------0----0----0--|------x----x----x--x--x--x------x----x----x--|
--5----5----5--5--5s--3--3--3--3--3--3--3--3-|--7----7----7--7--7s--5--5--5--5--5--5--5--5-|--0----0----0--0--0------0--0--0--0--0--0--0-|--0----0----0--0--0------0--0--0--0--0--0--0-|--0----0----0--0--0------0--0--0--0--0--0--0-|--x----x----x--x--x------x--x--x--x--x--x--x-|
Part 6: (slow ending) ------ (play part 1 before ending with part 6)
----------------------------------------------|------------0h--2p--0-------------0--2p--0----|------------0------------------4------------4-|----------------------------4-----------------|-------2-----------------2--------------------|--5-------------------------------------------|
----------------------------------------------|------------0h--2p--0-------------0--2p--0----|------------0------------------4------------4-|----------------------------4-----------------|-------2-----------------2--------------------|--5-------------------------------------------|
-----------------------------------0--10-----|-----------0-----------0-----------0---0-----|-----------0-----------0-----------0---0-----|--------0-----------0-----------0--0---0-----|-----2-----------4-----------2-----0---0-----|--5-----------7-----------5--------0---0-----| ^ strum
ENJOY!!!
Tap to rate this tab
 
# A B C D E F G H I J K L M N O P Q R S T U V W X Y Z