Smokescreen tab with lyrics by Ted Nugent - Easy chords and tabs for guitar

Ted Nugent – Smokescreen tab

Intro-------------------------------------------------------|-5------------5-------------5--------------------------|-5--------5-7---7-5v--------5--------------------------|-5-7-7---------------0h5h7--5-7-7---7--5---------------|---0-0------------------------0-0---------7--5--3v-----|--------------------------------------------------5----|
-------------------------------------------------------|-5-----------5-------------5---------------------------|-5-------5-7---7-5v--------5---------------------------|-5-7-7--------------0h5h7--5-7-7----7---5---------5----|---0-0-----------------------0-0-----------7--5---3----|-------------------------------------------------------|
-------------------------------5--------------------------|-5-----------5-----------------8b10--8--5-----------------|-5-------5-7---7-5v--0h5h7-5--------------7--5-5v---------|-5-7-7-----------------------5---------------------7------|---0-0----------------------------------------------------|----------------------------------------------------------|
-------------------------------5--------------------------|-5-----------5-----------------8b10--8--5-----------------|-5-------5-7---7-5v--0h5h7-5--------------7--5-5v---------|-5-7-7-----------------------5---------------------7------|---0-0----------------------------------------------------|----------------------------------------------------------|
Verse 1
--------------------------------------------------------|--------4-5---------5-4v---------4-5---------5-4v-------|-2~-----4-5--2~-----5-4v--2~-----4-5--2~-----5-4v-------|-2~-----4-5--2~-----------2~-----4-5--2~----------------|-0~----------0~-----------0~----------0~----------------|--------------------------------------------------------|
---------------------------------------------------------------|--------4-5---------5-4v---------4-5---------------------------|-2~-----4-5--2~-----5-4v--2~-----4-5--2~-----------------------|-2~-----4-5--2~-----------2~-----4-5--2~-----7--5--------------|-0~----------0~-----------0~----------0~-----------7--5--3v----|------------------------------------------------------------5--|
Chorus
-------------------------------5--------------------------|-5-----------5-----------------8b10--8--5-----------------|-5-------5-7---7-5v--0h5h7-5--------------7--5-5v---------|-5-7-7-----------------------5---------------------7------|---0-0----------------------------------------------------|----------------------------------------------------------|
-------------------------------5--------------------------|-5-----------5-----------------8b10--8--5-----------------|-5-------5-7---7-5v--0h5h7-5--------------7--5-5v---------|-5-7-7-----------------------5---------------------7------|---0-0----------------------------------------------------|----------------------------------------------------------|
Verse 2
--------------------------------------------------------|--------4-5---------5-4v---------4-5--------------------|-2~-----4-5--2~-----5-4v--2~-----4-5--2~------5h7p5s3v--|-2~-----4-5--2~-----------2~-----4-5--2~------5h7p5s3v--|-0~----------0~-----------0~----------0~----------------|--------------------------------------------------------|
---------------------------------------------------------------|--------4-5---------5-4v---------4-5---------------------------|-2~-----4-5--2~-----5-4v--2~-----4-5--2~-----------------------|-2~-----4-5--2~-----------2~-----4-5--2~-----7--5--------------|-0~----------0~-----------0~----------0~-----------7--5--3v----|------------------------------------------------------------5--|
Chorus
-------------------------------5--------------------------|-5-----------5-----------------8b10--8--5-----------------|-5-------5-7---7-5v--0h5h7-5--------------7--5-5v---------|-5-7-7-----------------------5---------------------7------|---0-0----------------------------------------------------|----------------------------------------------------------|
-------------------------------5--------------------------|-5-----------5-----------------8b10--8--5-----------------|-5-------5-7---7-5v--0h5h7-5--------------7--5-5v---------|-5-7-7-----------------------5---------------------7------|---0-0----------------------------------------------------|----------------------------------------------------------|
Wait and hold for feedback.---------------|---------------|-2~~~~---------|-2~~~~---------|-0~~~~---------|---------------|
Solo:
--------------------------------------------------------|-8~~~~~---10~~~-5~~~~----8~~~~~-13~~--12~~~~10~~~~~-----|-10b12~---12b14-7b9~~----10b12~-15b17~14b16~12b14~~-----|--------------------------------------------------------|--------------------------------------------------------|--------------------------------------------------------|
---------------------------------------------------------|-8~~~~~---10~~~-5~~~~-----13~~--12~~~~10~~~~5~~~10~~~~~~-|-10b12~---12b14-7b9~~-----15b17~14b16~12b14~7b9~12b14~~~-|---------------------------------------------------------|---------------------------------------------------------|---------------------------------------------------------|
----------------------------------------------8-3-5---8b----|---8b-8b--8b10--5v~------8b-8b-8b10---5-7-8-5------------8v-|-5--------------------5-------------------------------------|------------------------------------------------------------|------------------------------------------------------------|------------------------------------------------------------|
---------8---5-9b11-------------8-5--10b12------10b12-------|-5-7-8-5---5---------8v--5-7-8-5-----------10v--------12v---|------------------------------------------------------------|------------------------------------------------------------|------------------------------------------------------------|------------------------------------------------------------|
--------------------------15b17------------------------------|-15b17--12v-----------12--------12v--12h13p12--12h13p12------|-------------12-13-15------------------------14--------14v~--|-------------------------------------------------------------|-------------------------------------------------------------|-------------------------------------------------------------|
------------------------------------------------------------|-----------------------------------12h13p12-----------------|-11h12p11--11h12p11--11h12p11---------------14--11h12p11----|---------14--------14---------14v~----------------------14--|------------------------------------------------------------|------------------------------------------------------------|
Play this part as fast as possible.---------------------------------------------------------------------|-12h13p12-------------------12h13p12--12h13p12--12h13p12--12h13p12---|----------14--11h12p11--------------14--------14--------14--------14-|-----------------------14--------------------------------------------|---------------------------------------------------------------------|---------------------------------------------------------------------|
-------------12----12----12-----------------------12----12----12-----|-12h13p12----15b17-15b17-15b17--12-13---------13--15b17-15b17-15b17--|---------14--------------------------14v~--14------------------------|---------------------------------------------------------------------|---------------------------------------------------------------------|---------------------------------------------------------------------|
---------------12----12--------12----12---------------------------------|-12h13--13-----15b17-15b17-----15b17-15b17---------12h13p12----12-13-15-|------14--14v--------------12v-------------14v--12----------14----------|------------------------------------------------------------------------|------------------------------------------------------------------------|------------------------------------------------------------------------|
Hold last note----------12h15p12--13--15--17----------------------------------------|-13-12-15-------------------------------------------------------------|----------------------------------------------------------------------|----------------------------------------------------------------------|--------------------------------------------------3~---5~-------------|-----------------------------------------------------------1--3--5----|
*Do many hammer ons and pull offs with the 8th,7th,and 5th frets here*
--------------------------------------------------------------------------|-------------------7--------------------------4-5-5s8---*8p7p5h8p7p5h8p7--|-------------------7-4h5h7p4h5p4--------4-5-7-----------------------------|---------4-5--7~-----------------7v---7-----------------------------------|--3~--5~------------------------------------------------------------------|--------------------------------------------------------------------------|
-----------------------------------------------------------------------|-12~~~~--10~~~~--12~~~~--7~~~~--13~~--12~~--13~~--12~~--10~~10---------|-14b16~--12b14~--14b16~--9b11~--15b~--14b~--15b~--14b~--12b~12b14------|-----------------------------------------------------------------------|-----------------------------------------------------------------------|-----------------------------------------------------------------------|
----------------------8-8p5h8p5---------------------|-12~~-10~~-12~~-5~~-5----------8-5-4----------------|-14b~-12b~-14b~-7b~------------------7--5-4---------|----------------------------------------------------|--------------------------------------------5--7----|-------------------------------------------------4b-|
Verse 3
--------------------------------------------------------|--------4-5---------5-4v---------4-5--------------------|-2~-----4-5--2~-----5-4v--2~-----4-5--2~------5h7p5s3v--|-2~-----4-5--2~-----------2~-----4-5--2~------5h7p5s3v--|-0~----------0~-----------0~----------0~----------------|--------------------------------------------------------|
---------------------------------------------------------------|--------4-5---------5-4v---------4-5---------------------------|-2~-----4-5--2~-----5-4v--2~-----4-5--2~-----------------------|-2~-----4-5--2~-----------2~-----4-5--2~-----7--5--------------|-0~----------0~-----------0~----------0~-----------7--5--3v----|------------------------------------------------------------5--|
-------------------------------5------------------------|-5-----------5-----------------8b10--8--5---------------|-5-------5-7---7-5v--0h5h7-5--------------7--5-5v-------|-5-7-7-----------------------5--------------------7-----|---0-0--------------------------------------------------|--------------------------------------------------------|
-----------------------------------|-5-----------5---------------------|-5-------5-7---7-5v--0h5h7-5-------|-5-7-7---------------------5-7-7---|---0-0-----------------------0-0---|-----------------------------------|
Please rate this tab:
x1.0