The Last Waltz tab with lyrics by The Band - Easy chords and tabs for guitar

The Band – The Last Waltz tab

The Last Waltz - The Band (for mandoline)

----------------------------------------------------------------------------------------------|-------------------------2-----------------------------4--7-5-4-2----5-4-2-0----2-3-4-7-------|-2-4-6--6/7--6-4--2----2---6--6/7-6-4-6-4-3----2-4-6-7-----------------------2----------6-7---|----------------------------------------------------------------------------------------------|
-------------------------------2-1-0--------0-----2-------4-2-0-------------------------------|-4-3-4----0--7-6-5---2-1-2---0--------4-3-4---0-5---0-2---------5-4-2-0-----------------------|--------2------------------2--------------------------------------------6-4-2-----------------|----------------------------------------------------------------------------------------------|
-----------1-0------------------------------------------------0-------------------------------|-3-2-3---0-----5---2-0-2------7-5-3---0---0-3----5-3-1---1/2-----1/2--------------------------|-------2-----------------0--2-----------6------3----------------------------------------------|----------------------------------------------------------------------------------------------|
-------------------------------2-1-0--------0-----2-------4-2-0-------2----5------------------|-4-3-4----0--7-6-5---2-1-2---0--------4-3-4---0-5---0-2---------5-4-2----7--------------------|--------2------------------2------------------------------------------------------------------|----------------------------------------------------------------------------------------------|
----------------------------------------------------------------------------------------------|-0-2-3-4--------------------------------------------------------------------------------------|---------2-3-4---3-4---3/4---7-7-6-4-2--1/2--1-2---6-6-4-2----------------4-4-2-----------1-2-|-----------------------------------------------------------7---6-7--6-7---------7-6---5-6-----|
-----------------------------------------------------------------------------------------------|-----------------------------------------------------------------------------------------------|-3-4--0-4--3/4---7-7-6-4-2--1-2---1-2---------4---------2--------0-----------------------------|----------------------------------------7-6-4----7--4-2----4-2-1----4-5-6----------------------|
-----------------------------------------------------------------------------------------------|-----------------------------------------------------------------------------------------------|-2-1-0-----4----2-1-0-----2-------------0-----------2------------------------------------------|-------6-4------------4-2-----7-6-5-2-1-----4-3-2-1----4-2-------------------------------------|
-----------------------------------------------------------------------------------------------|-------------------------2-----------------------------4--7-5-4-2----5-4-2-0-------------------|-2-4-6--6/7--6-4--2----2---6--6/7-6-4-6-4-3----2-4-6-7-----------------------2-----------------|-----------------------------------------------------------------------------------------------|
----------------0-2----------0-2-4---0--5------------------------------------------------------|-2-4-5-7----4-5-----------5--------------------------------------------------------------------|-----------------------------------------------------------------------------------------------|-----------------------------------------------------------------------------------------------|
Please rate this tab:
x1.0