The Boxer Rebellion - Flight tab

Jim Weider - Flight
From PERCoLAToR



about 120 bpm


synthesizer for a few measures, then


Main Riff

e|--------------------2------------------------------2----------|B|-----3--------------3---------------3--------------3----------|G|-0h2---2-0----------2-----------0h2---2-0----------2----------|D|-----------4-0------0---------------------4-0------0----------|A|--------------------------------------------------------------|E|--------------------------------------------------------------|
|-----------------3--------3------------------------2----------||-----3-----------3--------3---------3--------------3----------||-0h2---2-0-------0--------0-----0h2---2-0----------2----------||-----------4------------------------------4-0------0----------||-------------3--------2---------------------------------------||--------------------------------------------------------------|
Verse
|--------------------------------------------------------------||--------------------------------------------------------------||--------------------------------------------------------------||-----10-12\14/12-/14----------10-12--12/14-\12p10p9--h10p9----||--10-----------------------10-----------------------------12--||--------------------------------------------------------------|
|--------------------------------------------------------------||--------------------------------------------------------------||--------------------------------------------------------------||-----10-12/14\12-/14-----12/14-/17\12-----12/14\12------------||--10------------------------------------------------10/12\10--||--------------------------------------------------------------|
Main Riff
|--------------------2------------------------------2----------||-----3--------------3---------------3--------------3----------||-0h2---2-0----------2-----------0h2---2-0----------2----------||-----------4-0------0---------------------4-0------0----------||--------------------------------------------------------------||--------------------------------------------------------------|
|-----------------3--------3------------------------2----------||-----3-----------3--------3---------3--------------3----------||-0h2---2-0-------0--------0-----0h2---2-0----------2----------||-----------4------------------------------4-0------0----------||-------------3--------2---------------------------------------||--------------------------------------------------------------|
Verse
|--------------------------------------------------------------||--------------------------------------------------------------||--------------------------------------------------------------||-----10-12-14\12/14--12\10/12/14--------9-10-12-10--9h10------||--10---------------------------------10------------------12---||--------------------------------------------------------------|
|--------------------------------------------------------------||---------------------------------------------------12/15-/19--||-------------------------------------------12-14/16-----------||-----10-12-14\12/14--12\10/12/14p12-12--/14-------------------||--10----------------------------------------------------------||--------------------------------------------------------------|
|-----------------------------------------------15b17--r15p12--||---------------15-15b17---r15p13--15-b17------x---------------||------12-14/16-------------------------------x----------------||--/12---------------------------------------------------------||--------------------------------------------------------------||--------------------------------------------------------------|
|--15--12h15p12-----------------------------------------17-19--||--------------15b17r15--13-------13-----------13-15/17--------||--------------------------14--/14---14-----/14----------------||--------------------------------------------------------------||--------------------------------------------------------------||--------------------------------------------------------------|
|--------------------------------------------------------------||--15b17-15/17--17b20-17b19----17b19r17-15-15------15-(15)-----||----------------------------------------------/16-------------||--------------------------------------------------------------||--------------------------------------------------------------||--------------------------------------------------------------|
Interlude (Rhythm guitar) 4X
|--------------------------------------------------------------||--------------------------------------------------------------||--5--7--7--7----5--7------5--7--7--7----5--7------------------||--5--7--7--7----5--7------5--7--7--7----5--7------------------||--3--5--5--5----3--5------3--5--5--5----3--5----3-2-0---------||-------------------------------------------------------1--3---|
(Lead guitar with wah-wah) starts on 3rd time
|----------------------------------------------------10h13p10--||--------------------------------------------------------------||-----/5-/5---/5-/5-/7--------------/5-/5---7------------------||----------------------5p4--------------------5p4--------------||--------------------------5\3---------------------------------||--------------------------------------------------------------|
|----------------------------------------------13b15-15h17----------||---------------------------------------------------------18-15-15--||----/5-/5---5\4/5/7\5-----------/5-/5---7--------------------------||----------------------4-------------------5p4----------------------||------------------------5\3----------------------------------------||-------------------------------------------------------------------|
|--------------------------------------------------------||--------------------------------------------------------||-----/5-/5---/5-/5-/7--------------/5-/5---7------------||----------------------5p4--------------------5-4--------||--------------------------5\3---------------------------||--------------------------------------------------------|
Main Riff
|--------------------2------------------------------2----------||-----3--------------3---------------3--------------3----------||-0h2---2-0----------2-----------0h2---2-0----------2----------||-----------4-0------0---------------------4-0------0----------||--------------------------------------------------------------||--------------------------------------------------------------|
2X|-----------------3--------3------------------------2----------||-----3-----------3--------3---------3--------------3----------||-0h2---2-0-------0--------0-----0h2---2-0----------2----------||-----------4------------------------------4-0------0----------||-------------3--------2---------------------------------------||--------------------------------------------------------------|
Verse
|--------------------------------------------------------------||---------------13-15------------------------------------------||-----14---14--------/14-----12-----------------------------12-||--/14---14---------------------14-12------12-----p10-----14---||-------------------------x-----------15-12--------------------||--------------------------------------------------------------|
|--------------------------------------------------------------------||---12---------------------------------------------13----------------||-14--1412----12-----------------------14b15b17r-----/14/14-\-12-12--||---------1412--1412--------------/14--------------------------------||-------------------1512--12-----------------------------------------||-----------------------15--151210-----------------------------------|
|--------------------------------------------------------------||------------------15----15/17\15--15/17\15--15/17----13b15-r--||-----12---14--------------------------------------------------||--/12--/13--13-/17-(17)---------------------------------------||--------------------------------------------------------------||--------------------------------------------------------------|
|-------------17-----------------------------15-12-1515p12--------||-----13-15/17--15b17---pb17r15p13-15b17------------------pb17r15-||--/14------------------------------------------------------------||-----------------------------------------------------------------||-----------------------------------------------------------------||-----------------------------------------------------------------|
|-------------------------------------------------------15------------------||-1315--131513------------------------13-15b17-r15-13------15b17r15b17-r15--||-----14------1412--------------12-/14--------------------------------------||-----------------1412-------/14--------------------------------------------||---------------------1512--------------------------------------------------||---------------------------------------------------------------------------|
|----------------------14h15p14-------------------------------||------------------------------15-----------------------------||--------------------------------14p12--12--------------------||-------------------------------------16--16p12---------------||----------------------------------------------12-------------||-------------------------------------------------------------|
Interlude Rhythm X8 and fade (Lead with wah-wah) starts on rhythms 2nd time
|---------10--10--10--10--------------------------------------||--3-/-10---10--10--10----------------------------------------||-------------------------------------------------------------||-------------------------------------------------------------||-------------------------------------------------------------||-------------------------------------------------------------|
|----------------------------------------------------13b15--15-17---------||-----------------------------------------------------------------18--15--||-----/5-/5---/5-/5-/7--------------/5-/5---7-----------------------------||----------------------5p4--------------------5p4-------------------------||--------------------------5\3--------------------------------------------||-------------------------------------------------------------------------|
|-----------------------------------------------17pbr15p13--------------------||----------------------------------------------------------20pbr17--15-18-15--||----/5-/5---5\4/5/7\5-----------/5-/5---7------------------------------------||----------------------4-------------------5p4--------------------------------||------------------------5\3--------------------------------------------------||-----------------------------------------------------------------------------|
|--------------------------------------------------------------------------||-------------------------------------------------------15--13--10--6-b7---||-----/5-/5---/5-/5-/7--------------/5-/5---7------------------------------||----------------------5p4--------------------5p4---/18--------------------||--------------------------5\3---------------------------------------------||--------------------------------------------------------------------------|
|-------------------------------------------------------------------||-------------------------------------------------6b9--6b7--6-3-----||----/5-/5---5\4/5/7\5-----------/5-/5---7--------------------------||----------------------4-------------------5p4----------------------||------------------------5\3----------------------------------------||-------------------------------------------------------------------|
begins to fade out
|------------------------------------------------------||------------------------------------------------------||-----/5-/5---/5-/5-/7--------------/5-/5---7----------||----------------------5p4--------------------5p4------||--------------------------5\3-------------------------||------------------------------------------------------|
|------------------------------------------------------||------------------------------------------------------||-----/5-/5---5\4/5/7\5-----------/5-/5---7------------||-----------------------4-------------------5p4--------||-------------------------5\3--------------------------||------------------------------------------------------|
That's it. Hope it can be some use to you.
Tap to rate this tab
 
# A B C D E F G H I J K L M N O P Q R S T U V W X Y Z