The Sword - Baraels Blade tab

Band: The Sword
Song: Baraelís Blade
Album: Age Of Winters
Tabbed By: Cadien Lake James with the help of human_disease

C Standard Tuning C-F-A#-D#-G-C

I only give the basic structure, the point is to make the song your own. Listen for transitions.

Intro|------------------------------------| |------------------------------------| |------------------------------------| |------------------------------------| |75-5----75-5------75-5----75-5------||--7-750---7-753-0---7-750---7-751-0-|
|------------------------------------| During this bar |------------------------------------| another guitar|------------------------------------| doubles the |------------------------------------| riff.|75-5----75-5------75-5----75-5--8---||--7-750---7-753-0---7-750---7-75----|
|--------------------------------------------------------||--------------------------------------------8h10108h1010||--------------------------------------------------------||--------------------------------------------------------||5h775h77----5h775h77----5h775h77----5h775h77------------||--------0-0---------0-0---------0-0---------------------|
Verse 1|-----------------------------------------------||-----------------------------------------------||---------------------------------------------79||----------------------------------------5h779--||5h775h77----5h775h77----5h775h77----5h77-------||--------0-0---------0-0---------0-0------------|
|------------------------------------------------||------------------------------------------------||------------------------------------------------||------------------------------------------------||5h775h77----5h775h77----5h775h77----5h7775------||--------0-0---------0-0---------0-0-------75-/30|
Chorus|------------------------||------------------------||------------------------||------------------------||2-2---------------------||0-0---------------------|
|--------------------------------------------------------||--------------------------------------------------------||--------------------------------------------------------||10-9910-9910-9910-99--------10-9910-9910-9910-99--------||8-/778-/778-/778-/772-2-2-2-8-/778-/778-/778-/772-2-2-2-||--------------------0-0-0-0---------------------0-0-0-0-|
|----------------------------||----------------------------||----------------------------||10-9910-9910-9910-99--------||8-/778-/778-/778-/772-2-2-2-||--------------------0-0-0-0-|
|---------------------------------------||---------------------------------------||---------------------------------------||10-9910-9910-9910-9910/999/888/777/66--||8-/778-/778-/778-/778-/777/666/555/442-||-------------------------------------0-|
IntroVerse 1|---------------------------------------------------||---------------------------------------------------||---------------------------------------------------||--------------------------------------------5h7775-||5h775h77----5h775h77----5h775h77----5h775h77------7||--------0-0---------0-0---------0-0----------------|
|-----------------------------------------------||-----------------------------------------------||---------------------------------------------79||----------------------------------------5h779--||5h775h77----5h775h77----5h775h77----5h77-------||--------0-0---------0-0---------0-0------------|
|------------------------------------------------------||------------------------------------------------8h1010||--------------------------------------------7h99------||7h997h99----7h997h99----7h997h99----7h997h99----------||5h775h772-2-5h775h772-2-5h775h772-2-5h775h77----------||--------0-0---------0-0---------0-0-------------------|
|-----------------------------------------------||-----------------------------------------------||-----------------------------------------------||7h997h99----7h997h99----7h997h99---------------||5h775h772-2-5h775h772-2-5h775h772-2-5h7775-----||--------0-0---------0-0---------0-0-------75-30|
Break|-----------------------------------------------||-----------------------------------------------||-----------------------------------------------||-----------------------------------------------| x 4|7777777775------------------------------------5||----------756666666553500000000035300000000035-|
|
|----------------------------------------------------------||----------------------------------------------------------||9-9----9-9----9-9----9/779/779-9----7-7-------------------||7-7----7-7----7-7----7/557/557-7----5-5----8-8----8/777/55||0-0-0000-0-0000-0-000------------000----0006-6-0006/555/33|
|-------------------||-------------------||-------------------||----------9/779/77-| x 2|2-32-32-3-7/557/55-||0-10-10-1----------|
Outro|--------------------------------------------------------||--------------------------------------------------------||--------------------------------------------------------||10-9910-9910-9910-99--------10-9910-9910-9910-99--------||8-/778-/778-/778-/772-2-2-2-8-/778-/778-/778-/772-2-2-2-||--------------------0-0-0-0---------------------0-0-0-0-|
|----------------------------||----------------------------||----------------------------||10-9910-9910-9910-99--------||8-/778-/778-/778-/772-2-2-2-||--------------------0-0-0-0-|
|---------------------------------------||---------------------------------------||---------------------------------------||10-9910-9910-9910-9910/999/888/777/66--||8-/778-/778-/778-/778-/777/666/555/442-||-------------------------------------0-|
Tap to rate this tab
 
# A B C D E F G H I J K L M N O P Q R S T U V W X Y Z