The Sword - Iron Swan tab

                        Iron Swan by The Sword

This song rocks!!! I have half of the solo but still working on it. Email me at 
if you have ahy ideas.

Intro A:

|------------------------------------------||-9-9/10-9-12-10-9-7-7/9--9-9/10-9-7-9/10\9||------------------------------------------||------------------------------------------||------------------------------------------||0----------------------0------------------|
|-------------------------------------------------||----9-9/10-9-12-10-9-9/10-9-7--9-9/10-9-7-5-7-5-5||-----------------------------------------------7-||-------------------------------------------------||-------------------------------------------------||0-0--------------------------0-------------------|
|---------------------------------------||--2-2/3-2-0-2-3-2-0---2-2/3-2-0-2-2/3-2||---------------------------------------||---------------------------------------||0-------------------0------------------||---------------------------------------|
|---------------------------------------------||----2-2/3-2-0-2-3-5-3-2---2-2/3-2-5-3-5-7-5-7||---------------------------------------------||---------------------------------------------||0-0---------------------0--------------------||---------------------------------------------|
|------------------------------------------||-9-9/10-9-12-10-9-7-7/9--9-9/10-9-7-9/10\9||------------------------------------------||------------------------------------------||------------------------------------------||0----------------------0------------------|
|--------------------------------------------------------||----9-9/10-9-12-10-9-9/10-9-7--9-9/10-9-10-9-10-10/12---||--------------------------------------------------------||--------------------------------------------------------||--------------------------------------------------------||0-0---------------------------0-----------------------0-|
Intro B:
|---------------------------------------||---------------------------------------||---------------------------------------||7-9------7-9------7-9------9-7-9-10-9-6||5-7------5-7------5-7------7-5-7-8--7-4||---------------------------------------|
|--------------------------------------------------------||--------------------------------------------------------||--------------------------------------------------------||7-9-----------7-9-----------7-9-----------9-10-9-12-10-9||5-7-----------5-7-----------5-7-----------7--8-7-10--8-7||---000-000-000---000-000-000---000-000-000--------------|
|---------------------------------------------------------||---------------------------------------------------------||---------------------------------------------------------||7-9------------7-9------------7-9------------9-7-9-10-9-6||5-7------------5-7------------5-7------------7-5-7-8--7-5||---000000000000---000000000000---000000000000------------|
|---------------------------------------------------------||---------------------------------------------------------||---------------------------------------------------------||7-9------------7-9------------7-9------------9-10-9-7-6-7||5-7------------5-7------------5-7------------7-8--7-5-4-5||---000000000000---000000000000---000000000000------------|
|--------------------------------------------------||--------------------------------------------------||--------------------------------------------------||--------------------------------------------------||8-7--------------8-7--------------8-7-------------||6-5-555555555555-6-5-555555555555-6-5-555555555555|
|---------------------------||---------------------------||---------------------------||8888-7777-10101010-12121212||---------------------------||---------------------------|
|--------------------------------------------------||--------------------------------------------------||--------------------------------------------------||--------------------------------------------------||8-7--------------8-7--------------8-7-------------||6-5-555555555555-6-5-555555555555-6-5-555555555555|
|-------------||-------------||-------------||-------------||2-5-4-2-7-2-8||0-3-2-0-5-0-6|
|---------------------------------------------------------||---------------------------------------------------------||---------------------------------------------------------||7-9------------7-9------------7-9------------9-7-9-10-9-6||5-7------------5-7------------5-7------------7-5-7-8--7-4||---000000000000---000000000000---000000000000------------|
|-----------------------------------------------------------||-----------------------------------------------------------||-----------------------------------------------------------||7-9------------7-9------------7-9------------9-109-13-12-10||5-7------------5-7------------5-7------------7-8-7-11-10--8||---000000000000---000000000000---000000000000--------------|
Rhythm Guitar|---------------||---------------||---------------||2---2---9------| x 4|2---2---7------||0---0---0---000| ...
Lead Guitar|------------------------------------------||------------------------------------------||------------------------------------------||------------------------------------------||--12h14p12-10h12p10-9-10-7--7-9-10-12-10-7||0-----------------------------------------|
|-------------------------------------||-------------------------------------||-------------------------------------||-------------------------------------||-7-5-4-5-7-4-4/10-9-7--10-9-10-12----||0---------------------------------000| ...Verse Riff:
|---------------------------------||---------------------------------||---------------------------------||---------------------------------||3-2-----------------------------8||4-3-000-000-000-000-000-000-000-6|
|------------------------------||------------------------------||------------------------------||--9---9---9---9---9---9-10-7-9||--7---7---7---7---7---7--8-5-7||000-000-000-000-000-000-------|
|-----------------------------||-----------------------------||-----------------------------||-----------------------------||----------------------------8||000-000-000-000-000-000-000-6|
|------------------------------||------------------------------||------------------------------||--9---9---9---9---9---9-10-7-9||--7---7---7---7---7---7--8-5-7||000-000-000-000-000-000-------|
Verse 1:
|-----------------------------||-----------------------------||-----------------------------||-----------------------------||----------------------------8||000-000-000-000-000-000-000-6|
|------------------------||------------------------||------------------------||--9---9---9--7-7--10-7-9||--7---7---7--5-5--8--5-7||000-000-000-------------|
|-----------------------------||-----------------------------||-----------------------------||-----------------------------||----------------------------8||000-000-000-000-000-000-000-6|
|-----------------------||-----------------------||-----------------------||--9---9---9--7-7--13-12||--7---7---7--5-5--11-10||000-000-000------------|
Pre-Chorus Riff A:
Rhythm Guitar|--------------------------------------------||--------------------------------------------||--------------------------------------------||---------------------------7----------------||777777777777777755555555-8-5-8-7--5-7-8-7--5||-------------------------6---6-5--3-5-6-5--3|
|---------------------------------------------||---------------------------------------------||---------------------------------------------||---------------------------7-----------------||777777777777777755555555-8-5-8-7--5-7-8-7----||-------------------------6---6-5--3-5-6-5--6~|
Lead Guitar|------------------------------------------------||------------------------------------------------||------------------------------------------------||1414141412121212--------------------------------||----------------14141414121212121111111112121212||------------------------------------------------|
|-------------------||-------------------||-------------------||--7----------------||8-5-8-7--5-7-8-7--5||6---6-5--3-5-6-5--3|
|---------------------------------------------||----------------77778888---------------------||--------77779999-----------------------------||77779999-------------------7-----------------||-------------------------8-5-8-7--5-7-8-7----||-------------------------6---6-5--3-5-6-5--6~|
Pre-Chorus Riff B:|--------------------------------||--------------------------------||--------------------------------| x 3|----------------9-10-9----------||---------8-7----7--8-7-----7-5-8||00000000-6-5-00-------0000-5-3-6|
|------------------------------||------------------------------||------------------------------||---------------9-10-9---------||--------8-7----7--8-7------3-2||00000000-6-5-00-------0000-4-3|
Chorus|---------------||---------------||---------------| x 3|7-9------------||5-7------------||---000000000000|
|-------------||-------------||-------------||7-9----------||5-7-----7-5-8||---0000-5-3-6|
|---------------||---------------||---------------| x 3|7-9------------||5-7------------||---000000000000|
|-----------||-----------||-----------||7-9--------||5-7-----3-2||---0000-4-3|
|---------------------------------||---------------------------------||---------------------------------||---------------------------------||9--9--9--9--9-----9--9--9--9-----| x 2|7--7--7--7--7-----7--7--7--7--6-5||0000000000000012/-0000000000004-3|
.. .. .. .. . .. .. .. ..|----------------------||----------------------||----------------------||7-99-99-9-10-9-0-----7||5-77-77-7--8-7-0-8-7-5||0-0000000--------6-5--|
. .|---------------------||---------------------||---------------------||7-99-99-9-9-7--------||5-77-77-7-7-5-8-7-5-8||0-0000000-----6-5-3-6|
. .|----------------------||----------------------||7-99-99-9-10-9-0-----7||5-77-77-7--8-7-0-8-7-5||0-0000000--------6-5--|
. .|---------------------||---------------------||---------------------||7-99-99-9-9-7--------||5-77-77-7-7-5-8-7-5-8||0-0000000-----6-5-3-6| . .
Rhythm Guitar|------------------------------------||------------------------------------||------------------------------------| x 2|------------------------------------||-77-77-7-77-77-7-7-5-55-5-55-1010-10||0--0--0-0--0--0-0---0--0-0--0----0--|
|---------------------------------------------------||---------------------------------------------------||---------------------------------------------------||---------------------------------------------------||7---------------5-------10-------7---------------5b||---------------------------------------------------|
Sorry for not having the solo!
Guitar Break|-------------------------------------------------------||-------------------------------------------------------||-------------------------------------------------------||-------------------------------------------------------||-------------------------------------------------------||000-000-000-000-000-000-000-000-000-000-000-000-000-000|
|-------------------------------------||-------------------------------------| x3|----------------------9-10-9---------||----------------8-7---7--8-7----7-5-8||000-000-000-000-6-5-00------000-5-3--|
|---------------------------||---------------------------||--------------9-10-9-------||--------8-7---7--8-7----3-2||000-000-6-5-00------000-4-3|
Verse 2:
|-----------------------------||-----------------------------||-----------------------------||-----------------------------||----------------------------8||000-000-000-000-000-000-000-6|
|------------------------||------------------------||------------------------||--9---9---9--7-7--10-7-9||--7---7---7--5-5---8-5-7||000-000-000-------------|
|-----------------------------||-----------------------------||-----------------------------||-----------------------------||----------------------------8||000-000-000-000-000-000-000-6|
|-----------------------||-----------------------||-----------------------||--9---9---9--7-7--13-12||--7---7---7--5-5--11-10||000-000-000------------|
Pre-Chorus Riff A:
Rhythm Guitar|--------------------------------------------||--------------------------------------------||--------------------------------------------||---------------------------7----------------||777777777777777755555555-8-5-8-7--5-7-8-7--5||-------------------------6---6-5--3-5-6-5--3|
|---------------------------------------------||---------------------------------------------||---------------------------------------------||---------------------------7-----------------||777777777777777755555555-8-5-8-7--5-7-8-7----||-------------------------6---6-5--3-5-6-5--6~|
Lead Guitar|------------------------------------------------||------------------------------------------------||------------------------------------------------||1414141412121212--------------------------------||----------------14141414121212121111111112121212||------------------------------------------------|
|-------------------||-------------------||-------------------||--7----------------||8-5-8-7--5-7-8-7--5||6---6-5--3-5-6-5--3|
|---------------------------------------------||----------------77778888---------------------||--------77779999-----------------------------||77779999-------------------7-----------------||-------------------------8-5-8-7--5-7-8-7----||-------------------------6---6-5--3-5-6-5--6~|
Pre-Chorus Riff B:|--------------------------------||--------------------------------||--------------------------------| x 3|----------------9-10-9----------||---------8-7----7--8-7-----7-5-8||00000000-6-5-00-------0000-5-3-6|
|------------------------------||------------------------------||------------------------------||---------------9-10-9---------||--------8-7----7--8-7------3-2||00000000-6-5-00-------0000-4-3|
Chorus:
|----------------------------------------------------------||----------------------------------------------------------||----------------------------------------------------------||7-9------------7-9------------9-7-9-10-9-6-7-9------------||5-7------------5-7------------7-5-7--8-7-4-5-7------------||---000000000000---000000000000----------------000000000000|
|--------------------------------------------------------||--------------------------------------------------------||--------------------------------------------------------||7-9------------7-9------------8-10-9-12-10-8-7-7--------||5-7------------5-7------------7--8-7-10--8-7-5-7-----3-2||---000000000000---000000000000------------------0000-4-3|
Outro:
Rhythm Guitar|---------------||---------------||---------------||2---2---9------| x 4|2---2---7------||0---0---0---000| ...
Lead Guitar|------------------------------------------||------------------------------------------||------------------------------------------||------------------------------------------||--12h14p12-10h12p10-9-10-7--7-9-10-12-10-7||0-----------------------------------------|
|-------------------------------------||-------------------------------------||-------------------------------------||-------------------------------------||-7-5-4-5-7-4-4/10-9-7--10-9-10-12----||0---------------------------------000|
...|---------------||---------------||---------------||2---9---2------| x 4|2---7---2------||0---0---0---000| ...
|------------------------------------------------------||-----------------------------------3------------------||------------------------------------------------------||------------------------------------------------------||------------------------------------------------------||------------------------------------------------------|
|-----------||-----------||2---------4||----------2||-----------||-----------|
And thats it!
Tap to rate this tab
 
# A B C D E F G H I J K L M N O P Q R S T U V W X Y Z