Song name
# A B C D E F G H I J K L M N O P Q R S T U V W X Y Z

A Loss For Words - Hold Your Breath tab

Tuning: DADGBE
Strumming isn't tabbed out fully. You can figure it out.

e|-----------------------------------------------------------------------|
B|-----------------------------------------------------------------------|
G|------6-7--7-7---------------------------------------------------------|   (X2)
D|-4-4-6-7-7-7-7-7-7-2-2-2-2---------------------------------------------|
A|-4-4-4-5-5-5-7-7-7-2-2-2-2---------------------------------------------| Intro/chorus
E|-4-4------------7-7-7-2-2-2-2------------------------------------------|

e|----------------------------------------------------------------------|
B|----------------------------------------------------------------------|
G|----------------------------------------------------------------------|   (X2)
D|-0--------------------------------------------------------------------|
A|-0----------------------- ring out------------------------------------|
E|-0--------------------------------------------------------------------|

e|-----------------------------------------------------------------|
B|-----------------------------------------------------------------|
G|-----------------------------------------------------------------|  (X4)
D|-44-444-77-777-22-222-00-000-------------------------------------|
A|-44-444-77-777-22-222-00-000-------------------------------------|  Verse
E|-44-444-77-777-22-222-00-000-------------------------------------|

e|--------------------------------------------------------------|
B|--------------------------------------------------------------|
G|--4-4---------------------------------------------------------| "She said let's drive…."
D|--4-4---4-4---2-2---------------------------------------------|
A|--2-2---4-4---2-2---------------------------------------------|
E|---------4-4---2-2--------------------------------------------|

e|-----------------------------------|
B|-----------------------------------|
G|--4-4-6-7-----------7-7-7-7-7-7-7--| "Like we are the only ones on the road tonight."
D|--4-4-6-7-----------7-7-7-7-7-7-7--|
A|--2-2-4-5--hold---5-5-5-5-5-5-5----|
E|-----------------------------------|

Play intro/chorus ^^^^
and then
e|----------------------------------------------------------|
B|----------------------------------------------------------|
G|----------------------------------------------------------|   (X2)
D|-0--------------------------------------------------------|
A|-0----------------------- ring out------------------------|
E|-0--------------------------------------------------------|

Then back to the verse (x4)
and then
e|----------------------------------------|
B|----------------------------------------|
G|--4-4-----------------------------------| "She said let's drive…."
D|--4-4---4-4---2-2-----------------------|
A|--2-2---4-4---2-2-----------------------|
E|---------4-4---2-2----------------------|

e|-----------------------------------|
B|-----------------------------------|
G|--4-4-6-7-----------7-7-7-7-7-7-7--| "Like we are the only ones on the road tonight."
D|--4-4-6-7-----------7-7-7-7-7-7-7--|
A|--2-2-4-5--hold-----5-5-5-5-5-5-7--|
E|-----------------------------------|

Play intro/chorus ^^^^
and then
e|----------------------------------------|
B|----------------------------------------|
G|----------------------------------------|   (X2)
D|-0--------------------------------------|
A|-0----------------------- ring out------|
E|-0--------------------------------------|

e|---------------------------|
B|---------------------------| Play however many times. Just different strumming. Hold all.
G|-----4--7------------------| "Don't believe…."
D|--7--4--7------------------|
A|--7--2--5------------------|
E|--7------------------------|

Then back to the chorus
Tap to rate this tab
 
# A B C D E F G H I J K L M N O P Q R S T U V W X Y Z