Song name
# A B C D E F G H I J K L M N O P Q R S T U V W X Y Z

Ac Dc - Lets Get It Up tab

 Intro
  Q=106
 4/4
  Gtr I
  E S S E E E E E E   W          E S S E E E E E E   Q  Q  +H
|-------------------|----------|-------------------|--------------|
|-------------2---3-|-3--------|-------------2---3-|-3--2--(2)----|
|-------------2---2-|-2--------|-------------2---2-|-2--2--(2)----|
|---------2---2---4-|-4--------|---------2---2---4-|-4--2--(2)----|
|-------2-----0---0-|-0--------|-------2-----0---0-|-0--0--(0)----|
|-0-2h4-------------|----------|-0-2h4-------------|--------------|


  +W           E S S E E E E E E   W          E S S E E E E E E
|------------|-------------------|----------|-------------------|
|-(2)--------|-------------2---3-|-3--------|-------------2---3-|
|-(2)--------|-------------2---2-|-2--------|-------------2---2-|
|-(2)--------|---------2---2---4-|-4--------|---------2---2---4-|
|-(0)--------|-------2-----0---0-|-0--------|-------2-----0---0-|
|------------|-0-2h4-------------|----------|-0-2h4-------------|


  Q  Q  +H       E S S E E E E E E   W          E S S E E E E E E
|--------------|-------------------|----------|-------------------|
|-3--2--(2)----|-------------2---3-|-3--------|-------------2---3-|
|-2--2--(2)----|-------------2---2-|-2--------|-------------2---2-|
|-4--2--(2)----|---------2---2---4-|-4--------|---------2---2---4-|
|-0--0--(0)----|-------2-----0---0-|-0--------|-------2-----0---0-|
|--------------|-0-2h4-------------|----------|-0-2h4-------------|


                  Verse
  Q  Q  +H         E E E E H      E E E E H      E E E E H
|--------------||---------------|--------------|--------------|
|-3--2--(2)----||o--------------|--------------|--------------|
|-2--2--(2)----||--2-4---9------|-2-4---4------|-2-4---9------|
|-4--2--(2)----||--2-4---9------|-2-4---4------|-2-4---9------|
|-0--0--(0)----||o-0-2---7------|-0-2---2------|-0-2---7------|
|--------------||---------------|--------------|--------------|


  E E E E H      E E E E H      E E E E H      E E E E H
|--------------|--------------|--------------|--------------|
|--------------|--------------|--------------|--------------|
|-2-4---4------|-2-4---9------|-2-4---4------|-2-4---9------|
|-2-4---4------|-2-4---9------|-2-4---4------|-2-4---9------|
|-0-2---2------|-0-2---7------|-0-2---2------|-0-2---7------|
|--------------|--------------|--------------|--------------|


  E E E E H      E E E E Q  Q    Q  E E +E  E Q    E E E E Q  Q
|--------------|---------------|--------------0--|---------------|
|--------------|---4-4-9-9--4--|-9--4---------2--|---4-4-9-9--4--|
|-2-4---4------|---4-4-9-9--4--|-9--4---------2--|---4-4-9-9--4--|
|-2-4---4------|---4-4-9-9--4--|-9--4-2-(2)-2-2--|---4-4-9-9--4--|
|-0-2---2------|---2-2-7-7--2--|-7--2-0-(0)-0-0--|---2-2-7-7--2--|
|--------------|---------------|-----------------|---------------|


  Q  E E +E  E Q    E E E E Q  Q    Q  E E +E  E Q    E E E E Q  E E
|--------------0--|---------------|--------------0--|----------------|
|-9--4---------2--|---4-4-9-9--4--|-9--4---------2--|---4-4-9-9--4-2-|
|-9--4---------2--|---4-4-9-9--4--|-9--4---------2--|---4-4-9-9--4-2-|
|-9--4-2-(2)-2-2--|---4-4-9-9--4--|-9--4-2-(2)-2-2--|---4-4-9-9--4-2-|
|-7--2-0-(0)-0-0--|---2-2-7-7--2--|-7--2-0-(0)-0-0--|-0-2-2-7-7--2-0-|
|-----------------|---------------|-----------------|----------------|


  +Q   Q  E E E E   +E  E Q  E E Q    E S S E E E E E E   W
|-----------------|-----------------|-------------------|------|
|-(2)--2--2-2-0-2-|-(2)-2-2--2-2-2--|-------------2---3-|-3----|
|-(2)--2--2-2-2-2-|-(2)-2-2--2-2-2--|-------------2---2-|-2----|
|-(2)--2--2-2-2-2-|-(2)-2-2--2-2-2--|---------2---2---4-|-4----|
|-(0)--0--0-0-0-0-|-(0)-0-0--0-0-0--|-------2-----0---0-|-0----|
|-----------------|-----------------|-0-2h4-------------|------|


  E S S E E E E E E   Q  Q  +H       E S S E E E E E E   W
|-------------------|--------------|-------------------|------|
|-------------2---3-|-3--2--(2)----|-------------2---3-|-3----|
|-------------2---2-|-2--2--(2)----|-------------2---2-|-2----|
|---------2---2---4-|-4--2--(2)----|---------2---2---4-|-4----|
|-------2-----0---0-|-0--0--(0)----|-------2-----0---0-|-0----|
|-0-2-4-------------|--------------|-0-2h4-------------|------|


                                      Guitar Solo
  E S S E E E E E E   Q  Q  +H         W
|-------------------|---------------||---------------|
|-------------2---3-|-3--2--(2)----o||-5-------------|
|-------------2---2-|-2--2--(2)-----||-4-------------|
|---------2---2---4-|-4--2--(2)-----||-2-------------|
|-------2-----0---0-|-0--0--(0)----o||---------------|
|-0-2h4-------------|---------------||---------------|
|
| Gtr II
| W                   W                E E +Q   H
|-------------------|---------------||---------------|
|-------------------|--------------o||-3-5-(5)--5----|
|-------------------|---------------||---------------|
|-------------------|---------------||---------------|
|-------------------|--------------o||---------------|
|-------------------|---------------||---------------|


   E  E E E Q   Q     W               E E E E Q  Q    E E  E  E +H
|-------------------|---------------|---------------|------------------|
|--5--3-3-3-3-------|-5-------------|-5-3-3-3-3-----|------------------|
|--4--2-2-2-2---2---|-4-------------|-4-2-2-2-2--2--|-2-4--4--1-(1)----|
|--2--0-0-0-0---2---|-2-------------|-2-0-0-0-0--2--|-2-4--4--2-(2)----|
|---------------0---|---------------|------------0--|-0-2--2--2-(2)----|
|-------------------|---------------|---------------|---------0-(0)----|
|
| +E  E E E E E E E   E E +Q   H      E E E E Q  Q    E E +E  E  H
|-------------------|---------------|---------------|-5-7-(7)-5--7-----|
|-(5)-3-3-3-3-2-----|-3-5-(5)--5----|---3-3-3-3-----|------------------|
|---------------4-2-|---------------|------------2--|------------------|
|-------------------|---------------|---------------|------------------|
|-------------------|---------------|---------------|------------------|
|-------------------|---------------|---------------|------------------|


  E   E   E   E +H       E E  E   E +Q    Q
|----------------------|---------------------|
|-------------4-(4)----|---------------------|
|-2---4---4---4-(4)----|-2-4--4---1-(1)---1--|
|-2---4---4---4-(4)----|-2-4--4---2-(2)---2--|
|-0---2---2---2-(2)----|-0-2--2---2-(2)---2--|
|----------------------|----------0-(0)---0--|
|
| S S S S S S E  H       E E +E   E  Q    Q
|---7-5----------------|---------------------|
|-------7-5-7----------|---------10------10--|
|-------------7--------|---9-(9)-----9----9--|
|----------------9-----|---------------------|
|----------------------|---------------------|
|----------------------|---------------------|


  E  E  E E  Q           Q
|----2--2-2--2---------------------|
|----3--3-3--3-----------2---------|
|----2--2-2--2-----------2---------|
|-2--0--0-0--0-----------2---------|
|-2--0--0-0--0-----------0---------|
|-0--------------------------------|
|
| E  E  Q    S  S  S  S  S  S  S S
|----------------------------------|
|---10-10---12-10------------------|
|-----------------11-10-11-10--9---|
|-----------------------------12-9-|
|----------------------------------|
|----------------------------------|


  E   E E E +H          E  E E E +H
|--------------------|-------------------|
|--------------------|---------4-(4)-----|
|-2---4-4-1-(1)------|--2--4-4-4-(4)-----|
|-2---4-4-2-(2)------|--2--4-4-4-(4)-----|
|-0---2-2-2-(2)------|--0--2-2-2-(2)-----|
|---------0-(0)------|-------------------|
|
| S S E Q    Q   E E   +E  E E E +Q   Q
|--------------------|-----5-5-5-(5)-----|
|------------------5-|-(5)---5-5-(5)-----|
|-9-7--------7-------|-------------------|
|-----9-9------------|-------------------|
|--------------------|-------------------|
|--------------------|-------------------|


  E E E E +Q     Q        E  E   E   E   Q   Q
|-----------------------|----2---2---2---2--------|
|-----------------------|----3---3---3---3---2----|
|-2-4-4-1-(1)----1------|----2---2---2---2---2----|
|-2-4-4-2-(2)----2------|-2--0---0---0---0---2----|
|-0-2-2-2-(2)----2------|-2--0---0---0---0---0----|
|-------0-(0)----0------|-0-----------------------|
|
| E E Q    E  E +S  S E   E  E  +E   E  +Q   E  E
|-5-7-7----7--9-(9)-9-7-|---10-(10)-10-(10)----10-|
|-7-9-9----9------------|-------------------------|
|-----------------------|-------------------------|
|-----------------------|-------------------------|
|-----------------------|-------------------------|
|-----------------------|-------------------------|


    E   E  E  E  +H          E  E     E     E  +H
|-------------------------|-----------------------------|
|-------------------------|-----------------4--(4)------|
|---2---4--4--1--(1)------|--2--4-----4-----4--(4)------|
|---2---4--4--2--(2)------|--2--4-----4-----4--(4)------|
|---0---2--2--2--(2)------|--0--2-----2-----2--(2)------|
|-------------0--(0)------|-----------------------------|
|
|  +E   E  E  E  +Q    Q     E  S  S  S  S  E  +Q.    E
|-(10)-11-------------12--|-12-10----12-10-----------17-|
|---------12-12-(12)------|-------12-------12-(12)------|
|-------------------------|-----------------------------|
|-------------------------|-----------------------------|
|-------------------------|-----------------------------|
|-------------------------|-----------------------------|


    E   E  E  E +Q      Q     E  E   E   E  Q      Q
|--------------------------|-----2---2---2--2------------|
|--------------------------|-----3---3---3--3------2-----|
|---2---4--4--1-(1)-----1--|-----2---2---2--2------2-----|
|---2---4--4--2-(2)-----2--|--2--0---0---0--0------2-----|
|---0---2--2--2-(2)-----2--|--2--0---0---0--0------0-----|
|-------------0-(0)-----0--|--0--------------------------|
|
|  +E   E  E  E  E.  S  Q     E  E  +E   E  E  E  +E   E
|-(17)-17------------------|-22-22-(22)------------------|
|---------19-17-17--15-----|------------24----22-(22)-22-|
|----------------------16--|---------------23------------|
|--------------------------|-----------------------------|
|--------------------------|-----------------------------|
|--------------------------|-----------------------------|


    E  E  E  E  +H             E   E     E     E +H
|--------------------------|--------------------------------|
|--------------------------|-------------------4-(4)--------|
|---2--4--4--1--(1)--------|---2---4-----4-----4-(4)--------|
|---2--4--4--2--(2)--------|---2---4-----4-----4-(4)--------|
|---0--2--2--2--(2)--------|---0---2-----2-----2-(2)--------|
|------------0--(0)--------|--------------------------------|
|
|  +Q     E  E  +Q    E  E    +E   S  S  S  S  E  E  E E  E
|--------------------------|--------------------------------|
|-(22)---22-22-(22)--22-22-|-(22)-22------------------------|
|--------------------------|---------23-21-21-19-20------21-|
|--------------------------|--------------------------------|
|--------------------------|--------------------------------|
|--------------------------|--------------------------------|


   E  E  E  E  +Q      Q        E   E  E  E  Q  Q
|---------------------------|-------2--2--2--2-----|
|---------------------------|-------3--3--3--3--2--|
|--2--4--4--1--(1)-----1----|-------2--2--2--2--2--|
|--2--4--4--2--(2)-----2----|---2---0--0--0--0--2--|
|--0--2--2--2--(2)-----2----|---2---0--0--0--0--0--|
|-----------0--(0)-----0----|---0------------------|
|
|  E  E  E  E  +E   E  E  E    +E   E  E  E  H
|----17------------19----22-|-(22)-22--------------|
|-19----17-17-(17)----19----|---------24----22-----|
|---------------------------|------------23--------|
|---------------------------|----------------------|
|---------------------------|----------------------|
|---------------------------|----------------------|


 Out-Chorus
  E S S E E E E E E   W          E S S E E E E E E   Q  Q  +H
|-------------------|----------|-------------------|--------------|
|-------------2---3-|-3--------|-------------2---3-|-3--2--(2)----|
|-------------2---2-|-2--------|-------------2---2-|-2--2--(2)----|
|---------2---2---4-|-4--------|---------2---2---4-|-4--2--(2)----|
|-------2-----0---0-|-0--------|-------2-----0---0-|-0--0--(0)----|
|-0-2h4-------------|----------|-0-2h4-------------|--------------|


  E S S E E E E E E   W          E S S E E E E E E   Q  Q  +H
|-------------------|----------|-------------------|--------------|
|-------------2---3-|-3--------|-------------2---3-|-3--2--(2)----|
|-------------2---2-|-2--------|-------------2---2-|-2--2--(2)----|
|---------2---2---4-|-4--------|---------2---2---4-|-4--2--(2)----|
|-------2-----0---0-|-0--------|-------2-----0---0-|-0--0--(0)----|
|-0-2h4-------------|----------|-0-2h4-------------|--------------|


  E S S E E E E E E   W          E S S E E E E E E   Q  Q  +H
|-------------------|----------|-------------------|--------------|
|-------------2---3-|-3--------|-------------2---3-|-3--2--(2)----|
|-------------2---2-|-2--------|-------------2---2-|-2--2--(2)----|
|---------2---2---4-|-4--------|---------2---2---4-|-4--2--(2)----|
|-------2-----0---0-|-0--------|-------2-----0---0-|-0--0--(0)----|
|-0-2h4-------------|----------|-0-2h4-------------|--------------|


  E S S E E E E E E   W          E S S E E E E E E   Q  Q  +H
|-------------------|----------|-------------------|--------------|
|-------------2---3-|-3--------|-------------2---3-|-3--2--(2)----|
|-------------2---2-|-2--------|-------------2---2-|-2--2--(2)----|
|---------2---2---4-|-4--------|---------2---2---4-|-4--2--(2)----|
|-------2-----0---0-|-0--------|-------2-----0---0-|-0--0--(0)----|
|-0-2h4-------------|----------|-0-2h4-------------|--------------|


  E E E E E E E E   E E E E E E Q    E S S E E E E E E   W
|-----------------|----------------|-------------------|------*|
|-2-2-2-2-2-2-2-2-|-2-2-2-2-2-2-2--|-------------2---3-|-3----*|
|-2-2-2-2-2-2-2-2-|-2-2-2-2-2-2-2--|-------------2---2-|-2----*|
|-2-2-2-2-2-2-2-2-|-2-2-2-2-2-2-2--|---------2---2---4-|-4----*|
|-0-0-0-0-0-0-0-0-|-0-0-0-0-0-0-0--|-------2-----0---0-|-0----*|
|-----------------|----------------|-0-2h4-------------|------*|
Tap to rate this tab
 
# A B C D E F G H I J K L M N O P Q R S T U V W X Y Z