Song name
# A B C D E F G H I J K L M N O P Q R S T U V W X Y Z

Ac Dc - Hell Aint A Bad Place To Be tab

Hell Aint a Bad Place To Be- AC/DC
(To make it sound better you might want tune the guitar down 1/4 of a step. You 
don't have to do it)

Intro (Malcolm and Angus)
e|-3-2-3-2-3-2---|
B|-3-3-3-3-3-3---|
G|-0-2-0-2-0-2-2-|
D|-0-0-0-0-0-0-2-|
A|-x---x---x---0-|
E|-3---3---3-----|

Verse (Angus)
e|-----------------------------------------------|
B|-----------------------------------------------|
G|-----------------------------------------------|
D|-5---4---5---4---5-4---5h7-7-7-x---5h7-7-7-x---|
A|-0-0-0-0-0-0-0-0-0-0-0-0---0-0---0-0---0-0---0-|
E|-----------------------------------------------|

Verse (Malcolm)
e|-----------------------------------------------|
B|-----------------------------------------------|
G|-----------------------2-2-2-2-x-x-2-2-2-2-x-x-|
D|-5---4---5---4---5-4---2-2-2-2-x-x-2-2-2-2-x-x-|
A|-0-0-0-0-0-0-0-0-0-0-0-0-0-0-0-----0-0-0-0-----|
E|-----------------------------------------------|

Chorus (Malcolm and Angus)
e|-----------------|
B|-3-3-3-3-3-3-3-3-|
G|-2-0-2-0-0-0-0-2-|
D|-0-0-0-0-0-0-0-0-|
A|---x---x-x-x-x---|
E|---3---3-3-3-3---|

e|-------3-|
B|-------3-|
G|-1-2-1-0-|
D|-2-2-2-0-|
A|-2-0-2-x-|
E|-0---0-3-|

Solo
e|---|
B|---|
G|---|
D|-7-|
A|---|
E|---|

e|----------------------------|
B|-5--------------------------|
G|-5--------7b9-7--7-7--7b9-7-|
D|---7-7--7-------------------|
A|----------------------------|
E|----------------------------|

e|-----5------------------|
B|------8p5---5-----------|
G|-7b9------7---5---7-5---|
D|----------------7-----7-|
A|------------------------|
E|------------------------|

e|------|
B|-8b10-|
G|------|
D|------|
A|------|
E|------|

e|----------|
B|-/7-10-10-|
G|----------|
D|----------|
A|----------|
E|----------|

e|-----------------------------|
B|-10-12b14-12b14--13b15-13-10-|
G|-----------------------------|
D|-----------------------------|
A|-----------------------------|
E|-----------------------------|

e|-----------------------------------|
B|--------------------------------20-|
G|-19b21-19b21--19b21r19p17-19b21----|
D|-----------------------------------|
A|-----------------------------------|
E|-----------------------------------|

e|--------------------------------------|
B|-------20-20----20-----------20-20----|
G|-19b21----19b21-19b21--19b21----19b21-|
D|--------------------------------------|
A|--------------------------------------|
E|--------------------------------------|

e|-------|
B|-20b22-|
G|-------|
D|-------|
A|-------|
E|-------|

Ending (Angus)
e|-------------------------------------------------|
B|-------------------------------------------------|
G|-------------------------------------------------|
D|-5-----4-----5-----4-----5---4---5h7-7-7---------|
A|-0-0-0-0-0-0-0-0-0-0-0-0-0-0-0-0-0---0-0-0-0-0-0-|
E|-------------------------------------------------|

e|-----------------|
B|-----------------|
G|-----------------|
D|-5h7-7-7---------|
A|-0---0-0-0-0-0-0-|
E|-----------------|

e|-----------------------------------------|
B|-----------------------------------------|
G|-----------------------------------------|
D|-5-----4-----5-----4-----5---4---5h7-7-7-|
A|-0-0-0-0-0-0-0-0-0-0-0-0-0-0-0-0-0---0-0-|
E|-----------------------------------------|

e|---------|
B|---------|
G|---------|
D|-5h7-7-7-|
A|-0---0-0-|
E|---------|

e|---------|
B|---------|
G|-------2-|
D|-5-4-2-2-|
A|-0-0-0-0-|
E|---------|

Ending (Malcolm)
e|-------------------------------------------------|
B|-------------------------------------------------|
G|-------------------------------------------------|
D|-5-----4-----5-----4-----5---4---5h7-7-7---------|
A|-0-0-0-0-0-0-0-0-0-0-0-0-0-0-0-0-0---0-0-0-0-0-0-|
E|-------------------------------------------------|

e|-----------------|
B|-----------------|
G|-----------------|
D|-5h7-7-7---------|
A|-0---0-0-0-0-0-0-|
E|-----------------|

e|-----------------------------------------|
B|-----------------------------------------|
G|-----------------------------------------|
D|-5-----4-----5-----4-----5---4---5h7-7-7-|
A|-0-0-0-0-0-0-0-0-0-0-0-0-0-0-0-0-0---0-0-|
E|-----------------------------------------|

e|---------|
B|---------|
G|---------|
D|-5h7-7-7-|
A|-0---0-0-|
E|---------|

e|---------|
B|---------|
G|-------2-|
D|-5-4-2-2-|
A|-0-0-0-0-|
E|---------|

Thank you
Tap to rate this tab
 
# A B C D E F G H I J K L M N O P Q R S T U V W X Y Z