Song name
# A B C D E F G H I J K L M N O P Q R S T U V W X Y Z

Against Me - Black Me Out tab

-------------------------------------------------------------------------------
                             Black Me Out - Against Me!
-------------------------------------------------------------------------------
Tabbed by: BOYERxBREAKDOWN

Tuning: Standard

e|---------------------------------------------------------------------------|
B|---------------------------------------------------------------------------|
G|---------------------------------------------------------------------------|
D|--------------------9-9--------------------------------9-9-6-6---6---------|
A|-7-7-11-11-11-9-7-7-0-0-11-11-9-11-9-7-7-7-9-9-9-7-9-7---------9---9-7-----|
E|-0-0-0--0--0--0-0-0-----0--0--0-0--0-0-5-5-5-5-5-5-5-5-5-5-5-5-5-5-5-5-----|

e|---------------------------------------------------------------------------|
B|---------------------------------------------------------------------------|
G|---------------------------------------------------------------------------|
D|-4-4-6-6-4-4-6-6-4-4-6-6-4-4-6-4-2-2-4-4-6-6-2-2-9-9-9-9-9-9-9-9-----------|
A|-2-2-2-2-2-2-2-2-2-2-2-2-2-2-2-2-0-0-0-0-0-0-0-0-0-0-0-0-0-0-0-0-----------|
E|-0-0-0-0-0-0-0-0-0-0-0-0-0-0-0-0-------------------------------------------|
Tap to rate this tab
 
# A B C D E F G H I J K L M N O P Q R S T U V W X Y Z