Song name
# A B C D E F G H I J K L M N O P Q R S T U V W X Y Z

Against Me - You Look Like I Need A Drink Acoustic tab

Artist: Against Me!
Title:  You Look Like I Need A Drink
Album:  [2004] Cavalier éternal

Intro.

e| ---------------------------------------------3-3-3-3---------|
B| ---------------------------------------------3-3-3-3---------|
G| -----------2---------------------------------0-0-0-0---------|
D| ------4----4--2--4-2-0-2---4p2p0-----0---0---0-0-0-0---4p2p0-|
A| -2--5---5--5--0------------------------------2-2-2-2---------|
E| ----------------------------------3----3-----3-3-3-3---------|
                                                        
Bm fingering

e| ---------------------------------------|
B| ---3---3----3-------3---3----3-------3-|
G| ---4---4----4-------4---4----4-------4-|
D| ---4---4----4-------4---4----4-------4-|
A| -2-2---2--2-2---0-2-2---2--2-2---0-2-2-|
E| -----2--------2-------2--------2-------|

A fingering

e| ------------------------|
B| ------------------------|
G| ----6-----6-----6-----6-|
D| ----7-----7-----7-----7-|
A| ----7-----7-----7-----7-|
E| -5--5--0--5--5--5--0--5-|


G fingering

e| ---------------------------|
B| ---------------------------|
G| ----4-----4-----4-----4----|
D| ----5-----5-----5-----5----|
A| -4--5-----5--4--5-----5--0-|
E| ----3--3--3-----3--3--3----|

Bm                     A
in the closest alley, in the first doorway,
G                                    Bm
pushed up against her and closed his eyes.
                                        A
he said, "this is probably the worst decision that I've ever made."
G
she laughed and smiled.
Bm                                                    Bm
she said, "i'm sure you do this all the time... Right?"
Bm                                     A
as the morning came and the city woke into the building people all went to work,
G
as their rides out of town came they parted ways she said,
Bm
"do you know when you're coming back again?"
                                       A
dig it deeper and deeper and farther still,
bury it up and over and into the ground,
G                                         D             E    G
all these lies will grow in ways that we never thought possible.

Bm (mute)
if you quiet down, down,
A (mute)
it's so soft of a sound,
G (mute)                               Bm
you can hear it all coming back after you.     (2x)

Bm
now you want to take it back, you think you might have fucked up.
A
 waking dreams of concrete, deafening panic, cracked skull,
G                                                           Bm
there is yelling all around, get up, get up please start breathing
Bm
and the moment will come when you finally realize
A
the results of decisions and choices in your life.
G                                     Bm A G Bm
Do you hear it all coming back after you
Tap to rate this tab
# A B C D E F G H I J K L M N O P Q R S T U V W X Y Z