Song name
# A B C D E F G H I J K L M N O P Q R S T U V W X Y Z

Agent Orange - Speed Kills tab

Agent Orange - Speed Kills

Tabbed by Skater2000

E-Mail Skater2000@aon.at

^^= Hold Note

----------------------------


Intro:

----------------|
----------------|
----------------|
--7-7-7-7-7---8-| Repeat 4x
--5-5-5-5-5-0-6-|
----------------|

Verse:

------------------------------|
------------------------------|
------------------------------|
--7-7-7-7-7---8-4-4-4-4-4---5-| Repeat 2x then play Intro 1x
--5-5-5-5-5-0-6-2-2-2-2-2-0-3-|
------------------------------|
  |Repeat   4x | Repeat 2x   |

Chorus:

--------------------------------------------------|
--------------------------------------------------|
-7^^------------------------------7^^-------------|
-7^^--7-7-7-7-7---8-7-7-7-7-7---8-7^^-7-7-7-7-7---|
-9^^--5-5-5-5-5-0-6-5-5-5-5-5-0-6-9^^-5-5-5-5-5---|
--------------------------------------------------|

Havent got the SOLO yet :-( I'M sorry...

Song Order:

Intro 4x
Verse 2x into Intro 1x
Chorus 1x
Verse 2x into Intro 1x
Chorus 1x
Solo (Sry dont have it)
Intro
------------------------
End
Tap to rate this tab
# A B C D E F G H I J K L M N O P Q R S T U V W X Y Z