Guitaretab - guitar tabs
Song name
# A B C D E F G H I J K L M N O P Q R S T U V W X Y Z
Home / A / Aiden / Moment tab

Aiden - Moment tab

Tuning: DGCFAd



Moment: Guitar(1)
Intro:
d|-------------------------|
A|-------------------------|
F|---6--13--2--6-----------|
C|---7--14--3--7--7--5--3--|
G|---7--14--3--7--7--5--3--|
D|---5--12--1--5--5--3--1--|
Verse 2x V
d|-----------------------------------------------------------------|
A|-----------------------------------------------------------------|
F|-----------------------------------------------------------------|
C|--3333333-2222222--4444444--2222222----33333333--44444--22222---|
G|--11111110-33333330-55555550-33333330---111111110-555550-333330--|
D|-----------------------------------------------------------------|
PM  ........ ........ ........ ........   ......... ...... ...... 
Chorus
d|----------------------------------------------------------|
A|----------------------------------------------------------|
D|----777777777-----------333333333-------------------------|
C|----777777777-777777777-333333333-333333333---------------|
G|----555555555-777777777-111111111-333333333---------------|
D|--------------555555555-----------111111111---------------|
[ Tab from: http://www.guitaretab.com/a/aiden/180799.html ]
d|---------------------------------------------|------------|
A|---------------------------------------------|------------|
D|----777777777-555555555-333333333-555555555--|--5~--------|
C|----777777777-555555555-333333333-555555555--|--5~--------|
G|----555555555-333333333-111111111-333333333--|--3~--------|
D|---------------------------------------------|------------|                        
2nd Verse(x2)
d|-----------|--------------------------------------------------------|
A|-----------|--5--6-6-6-6-5-5-5-5-6-6-6-6-5-5-5-5-6--6-6-6-6-5-5-5-5-|
D|-----------|--4--5-5-5-5-4-4-4-4-5-5-5-5-4-4-4-4-5--5-5-5-5-4-4-4-4-|
C|-pick slide|--------------------------------------------------------|
G|-pick slide|--------------------------------------------------------|
D|-pick slide|--------------------------------------------------------|
2nd Verse Ending 
d|---------------|
A|---------------|
D|---------------|
C|-pick slide----|
G|-pick slide----|
D|-pick slide----|
Chorus 2x
Bridge 2x
d|----------------------------------------------------------|
A|----------------------------------------------------------|
D|-333333333-555555555-333333333-777777777-555555555--------|
C|-333333333-555555555-333333333-777777777-555555555--------|
G|-111111111-333333333-111111111-555555555-333333333--------|
D|----------------------------------------------------------|
d|--------------------------------|
A|--------------------------------|
D|--333333333-555555--6~----------|
C|--333333333-555555--6~----------|
G|--111111111-333333--4~----------|
D|--------------------------------|
Chorus 2x
Related for Moment tab