Song name
# A B C D E F G H I J K L M N O P Q R S T U V W X Y Z

Aiden - Die Romantic tab

----------------------------------------------------------------------------
			     Die Romantic-Aiden
----------------------------------------------------------------------------
Tabbed by:Aidenundrgrnd
Email:snowboardmxer182@msn.com

Tuning:Drop C#

**Intro**

Guitar 1
e|-------------------------------------------------------------------------|
B|-------------------------------------------------------------------------|
G|--99-------99-------77-------77-------66-------66-------77-------77------|
D|--xx-X-----xx-X-----xx-X-----xx-X-----xx-X-----xx-X-----xx-X-----xx-X----|
A|--77-X-----77-X-----55-X-----55-X-----44-X-----44-X-----55-X-----55-X----|
E|-----X(x5)----X(x5)----X(x5)----X(x5)----X(x5)----X(x5)----X(x5)----X(x5-|

e|-------------------------------------------------------------------------|
B|-------------------------------------------------------------------------|
G|--99-------99-------77-------77-------66-------66-------77-------77------|
D|--xx-X-----xx-X-----xx-X-----xx-X-----xx-X-----xx-X-----xx-X-----xx------|
A|--77-X-----77-X-----55-X-----55-X-----44-X-----44-X-----55-X-----55------|
E|-----X(x5)----X(x5)----X(x5)----X(x5)----X(x5)----X(x5)----X(x5)---------|


Guitar 2
e|-------------------------------------------------------------------------|
B|-------------------------------------------------------------------------|
G|-------------------------------------------------------------------------|
D|--44-4-----44-4-----44-4-----44-4-----00-0-----00-0-----22-2-----22-2----|
A|--44-4-----44-4-----44-4-----44-4-----00-0-----00-0-----22-2-----22-2----|
E|--44-4(x5)-44-4(x5)-44-4(x5)-44-4(x5)-00-0(x5)-00-0(x5)-22-2(x5)-22-2(x5-|
    *        *        *        *        *        *        *        *
e|-------------------------------------------------------------------------|
B|-------------------------------------------------------------------------|
G|-------------------------------------------------------------------------|
D|--44-4-----44-4-----44-4-----44-4-----00-0-----00-0-----22-2-----22-2----|
A|--44-4-----44-4-----44-4-----44-4-----00-0-----00-0-----22-2-----22-2----|
E|--44-4(x5)-44-4(x5)-44-4(x5)-44-4(x5)-00-0(x5)-00-0(x5)-22-2(x5)-22-2(x5-|


**Verse**

Guitar 1
e|----5----5--7p5---5-------------|        e|--7p5---7p5---7p5--|
B|--5----5--------5---5-5---------|        B|------5-----5------|
G|--------------------------------|        G|-------------------|
D|--------------------------------|        D|-------------------|
A|--------------------------------|        A|-------------------|
E|--------------------------------|x3 then E|-------------------|

e|----5----5--7p5---5-------------|        e|----5---5--7p5-----|
B|--5----5--------5---5-5---------|        B|--5---5------------|
G|--------------------------------|        G|-------------------|
D|--------------------------------|        D|-------------------|
A|--------------------------------|        A|-------------------|
E|--------------------------------|x3 then E|-------------------|


Guitar 2
e|------------------------------------------------------------|
B|------------------------------------------------------------|
G|-------9------6-------7-------7-----7p6---7p6---7p6---------|
D|-----7------7-------7-------7-----------7-----7-------------|
A|--/9-----/5-------7------77------7--------------------------|
E|------------------------------------------------------------|
	 +      +       +  **   +         +     +

e|----------------------------------|
B|----------------------------------|
G|-------9------6-------7-------7---|
D|-----7------7-------7-------7-----|
A|--/9-----/5-------7------77-------|
E|----------------------------------|
         +      +       +  **

**Chorus**

Guitar 1
e|-------------------------------|         e-------------------------------|
B|-------------------------------|         B-------------------------------|
G|--999999999999999--13/14-13-14-|         G--99999--77777777--66--444--22-|
D|--xxxxxxxxxxxxxxx--x-/x--x--x--|         D--xxxxx--xxxxxxxx--xx--xxx--xx-|
A|--777777777777777--11/12-11-12-|         A--77777--55555555--44--222--00-|
E|-------------------------------| x3 then E-------------------------------|

Guitar 2
e|-----------------------------------------------------------------|
B|-----------------------------------------------------------------|
G|-----------------------------------------------------------------|
D|--7777777777777777777777777777---2222222222222222222222222222----|
A|--7777777777777777777777777777---2222222222222222222222222222----|
E|--7777777777777777777777777777---2222222222222222222222222222----|

e|-----------------------------------------------------------------|
B|-----------------------------------------------------------------|
G|---------------------------------7777777777777777777777777777----|
D|--4444444444444444444444444444---7777777777777777777777777777----|
A|--4444444444444444444444444444---5555555555555555555555555555----|
E|--4444444444444444444444444444-----------------------------------|


**Bridge 1**

Guitar 1
e|-----------|--------------------------------------|
B|-----------|--------------------------------------|
G|-----------|------9---------9---------6---------7-|
D|--0--------|-4----x----2----x----0----x----2----x-|
A|--0--------|-4----7----2----7----0----4----2----5-|
E|--0letring-|-4----0----2----0----0----0----0----0-| X3

Guitar 2
e|---------------------|
B|---------------------|
G|--4/6--6/7--6/4--6/2-|
D|---------------------|
A|---------------------|
E|---------------------| x7


**Bridge 2**

Guitar 1
e|-------------------------|      
B|-------------------------|      
G|-------------------------|      
D|--444-4-44-4--444-4-44-4-|      
A|--444-4-44-4--444-4-44-4-|      
E|--444-4-44-4--444-4-44-4-|
        *    *      *    *
e|----------------------------------------------------|
B|----------------------------------------------------|
G|-------------------------------141414--------141414-|
D|--4-4----4444-4----444--0-0----x-x-x--0-0----x-x-x--|
A|--4-4----4444-4----444--0-0----121212-0-0----121212-|
E|--4-4(x6)4444-4(x6)444--0-0(x6)-------0-0(x6)-------| x2
      *         *           *             *

Guitar 2
e|----------------------------------------------------|
B|----------------------------------------------------|
G|-------------------------------999-----------999----|
D|--4-4----4444-4----444--0-0----xxx----0-0----xxx----|
A|--4-4----4444-4----444--0-0----777----0-0----777----|
E|--4-4(x6)4444-4(x6)444--0-0(x6)-------0-0(x6)-------| x2
   *         *           *             *

**Outro (same as chorus but different for guitar 2)**

Guitar 1
e|-------------------------------|         e-------------------------------|
B|-------------------------------|         B-------------------------------|
G|--999999999999999--13/14-13-14-|         G--99999--77777777--66--444--22-|
D|--xxxxxxxxxxxxxxx--x-/x--x--x--|         D--xxxxx--xxxxxxxx--xx--xxx--xx-|
A|--777777777777777--11/12-11-12-|         A--77777--55555555--44--222--00-|
E|-------------------------------| x3 then E-------------------------------|

Guitar 2
e|-----------------------------------------------------------------|
B|-----------------------------------------------------------------|
G|-----------------------------------------------------------------|
D|--7777777777777777777777777777---2222222222222222222222222222----|
A|--7777777777777777777777777777---2222222222222222222222222222----|
E|--7777777777777777777777777777---2222222222222222222222222222----|

e|-----------------------------------------------------------------|
B|-----------------------------------------------------------------|
G|-----------------------------------------------------------------|
D|--4444444444444444444444444444---0000000000000000000000000000----|
A|--4444444444444444444444444444---0000000000000000000000000000----|
E|--4444444444444444444444444444---0000000000000000000000000000----|


**Outro 2**

Both Guitars
e|-------------------------------------------------------------------------|
B|-------------------------------------------------------------------------|
G|-------------------------------------------------------------------------|
D|--000-0---000-2---000-4---000-2---000-0---000-2---0----------------------|
A|--000-0---000-2---000-4---000-2---000-0---000-2---0----------------------|
E|--000-0---000-0---000-0---000-0---000-0---000-0---0letring---------------|
    ***     ***     ***     ***     ***     ***



**Order**

Intro
Verse
Chorus
Verse
Chorus x2
Bridge1
Bridge2
Verse
Outro1 x2
Outro2


| /  slide up
| \  slide down
| h  hammer-on
| p  pull-off
| ~  vibrato
| +  pinch harmonic
| x  Mute note
| *  Palm mute
============================================================================
Tap to rate this tab
 
# A B C D E F G H I J K L M N O P Q R S T U V W X Y Z