Song name
# A B C D E F G H I J K L M N O P Q R S T U V W X Y Z

Aiden - White Wedding tab

White Wedding 
Aiden
Rain In Hell-EP

Intro
e|-2-----------2---2---3--------------------|
B|---3-------3---3-3---3-3-44-3-------------|
G|-----4---4-------2-6----------------------|
D|-------5-----------6----------------------| 
A|-------------------4----------------------|
E|------------------------------------------|

e|-2-----------2---2---3--------------------|
B|---3-------3---3-3---3-3-44-3-------------|
G|-----4---4-------2-7----------------------|
D|-------5-----------7----------------------| 
A|-------------------5----------------------|
E|------------------------------------------|

Verse Bass and Drums For A Bit Then
e|-------3~--------|
B|-------2~--------|
G|-7~-6~-3~--------|
D|-7~-6~-----------| x3 On The Last Dont Do The 323 (D chord) 
A|-5~-4~-----------|
E|-----------------|

Verse 2
Play Till chorus
e|-----------------------------------------|
B|-----------------------------------------|
G|-77-7-7-7-7-7-7-6666---------------------|
D|-77-7-7-7-7-7-7-6666---------------------| 
A|-55-5-5-5-5-5-5-4444---------------------|
E|-----------------------------------------|
   ..   .   .

Then Do This Again
Then Guitar 2 Does this
e|-------3~--------|
B|-------2~--------|
G|-7~-6~-3~--------|
D|-7~-6~-----------| x3 On The Last Dont Do The 323 (D chord) 
A|-5~-4~-----------|
E|-----------------|
   
Chorus Bass And Drums Again
Then Guitar 1 comes in with the intro
e|-2-----------2---2---3--------------------|
B|---3-------3---3-3---3-3-44-3-------------|
G|-----4---4-------2-6----------------------|
D|-------5-----------6----------------------| 
A|-------------------4----------------------|
E|------------------------------------------|

e|-2-----------2---2---3--------------------|
B|---3-------3---3-3---3-3-44-3-------------|
G|-----4---4-------2-7----------------------|
D|-------5-----------7----------------------| 
A|-------------------5----------------------|
E|------------------------------------------|
      
Play Verse Again
Play Till Chorus
e|-----------------------------------------|
B|-----------------------------------------|
G|-77-7-7-7-7-7-7-6666---------------------|
D|-77-7-7-7-7-7-7-6666---------------------| 
A|-55-5-5-5-5-5-5-4444---------------------|
E|-----------------------------------------|
   ..   .   .

Then Do This Again
Then Guitar 2 Does this
e|-------3~--------|
B|-------2~--------|
G|-7~-6~-3~--------|
D|-7~-6~-----------| x3 On The Last Dont Do The 323 (D chord) 
A|-5~-4~-----------|
E|-----------------|

Chorus
Guitar 2 Plays Verse 2 until the end of the chorus

Bridge/Outro
e|-------3~--------|
B|-------2~--------|
G|-7~-6~-3~--------|
D|-7~-6~-----------| x3 
A|-5~-4~-----------|
E|-----------------|
Tap to rate this tab
# A B C D E F G H I J K L M N O P Q R S T U V W X Y Z