Song name
# A B C D E F G H I J K L M N O P Q R S T U V W X Y Z

Airbourne - Cheap Wine And Cheaper Women tab

Band: Airborne
Song: Cheap Wine and Cheaper Women
Tabbed By: Lynn ;)
Date: 08/16/08


Listen to the song to get the right timing.


Intro:                                           D   A
|---------------------------------------------------| 
|------------------------------------------3--------|
|------------------------------------------2---2----|
|------------------------------------------0---2----|  
|-2--2-------5----------7---7--5------5--------0----| 
|-0--0--5/7------0--5/7------------7----------------|


Chorus:
  E   D   G   D   A      E   D    G   D             
|-----2---3---2-------|------2----3---2-------------|
|-----3---3---3---2---|------3----3---3---2---------|
|-----2---0---2---2---|------2----0---2---2---------|
|-2---0---0---0---2---|--2---0----0---0---2---------|
|-2---------------0---|--2----------------0---------|
|-0-------3-----------|--0--------3-----------------|




Tap to rate this tab
# A B C D E F G H I J K L M N O P Q R S T U V W X Y Z