Song name
# A B C D E F G H I J K L M N O P Q R S T U V W X Y Z

Akira Yamaoka - Tears Of Pain tab

-------------------------------------------------------------------------------
			     TEARS OF PAIN - Silent Hill/Akira Yamaoka
-------------------------------------------------------------------------------
Tabbed by:freak_sho246
Email:freak_sho246@yahoo.com

Tuning:EADGBe

   Gm         Gsus4      G7sus2     GM7sus2
e|--------------------------------------------| x2
B|------------------1~------------------------|
G|-------3~--------------------2~---------2~--|
D|----5----------0----------3----------4------|
A|--------------------------------------------|
E|-3----------3----------3----------3---------|
Tap to rate this tab
# A B C D E F G H I J K L M N O P Q R S T U V W X Y Z