Song name
# A B C D E F G H I J K L M N O P Q R S T U V W X Y Z

Akon - Dont Matter tab

   

Asaf Kamm

e|---1----1----------------1----1----------1-1--------------------------|
B|-3----1---3-1-1---1----3----1---3-1-1--------3-3-1-1----3-1----1-3-4--|
G|----------------3---3-----------------3---------------3-----3---------|
D|----------------------------------------------------------------------|
A|----------------------------------------------------------------------|
E|----------------------------------------------------------------------|


e|---------1-1-----------------------------------------------1-1--3-1---|
B|--3-1--------3-3-1-1---3-1----1-3-4--3-1--------1-3--3-3-4------------|
G|------3--------------3------3------------3--3-3-----------------------|
D|----------------------------------------------------------------------|
A|----------------------------------------------------------------------|
E|----------------------------------------------------------------------|

e|----------------------1-1---------------------------------------------|
B|--3-1----1-3-4-3-1--------3-3-1-1---3-1---1-3-4-3-1-------------------|
G|-------3-----------3--------------3-----3-----------3-----------------|
D|----------------------------------------------------------------------|
A|----------------------------------------------------------------------|
E|--------A-s-A-f---K-a-m-m---------------------------------------------|
Tap to rate this tab
 
# A B C D E F G H I J K L M N O P Q R S T U V W X Y Z