Song name
# A B C D E F G H I J K L M N O P Q R S T U V W X Y Z

Alan Jackson - I Dont Even Know Your Name tab

-------------------------------------------------------------------------------
              I DON'T EVEN KNOW YOUR NAME (INTRO) - Alan Jackson
-------------------------------------------------------------------------------
Tabbed by: Barry Miles

e|------|-----------------------------------------------------------------|
B|------|-----------------------------------------------------------------|
G|------|--------------------------------------------------7--------------|
D|------|----------------------------------------------7/9-----8\7h5------|
A|------|----5/7---7-7-7----5/7---7-7-7----5/7---7-7-7---------------7h5--|
E|-15\--|-0--------------0--------------0---------------------------------|

e|------------------------------------------------------------------------|
B|------------------------------------------------------------------------|
G|-----------------------------------7------------------------------------|
D|-------------------------------7/9----8\7h5-----------------------------|
A|----5/7---7-7-7----5/7---7-7-7--------------7h5-7--5--------------------|
E|-0--------------0--------------------------------------7\6\5-3b--0------|



| /  slide up
| \  slide down
| h  hammer-on
| p  pull-off
| ~  vibrato
| +  harmonic
| x  Mute note
===============================================================================
Tap to rate this tab
# A B C D E F G H I J K L M N O P Q R S T U V W X Y Z