Guitaretab - guitar tabs
Song name
# A B C D E F G H I J K L M N O P Q R S T U V W X Y Z

Alexisonfire - Crisis tab

100% correct, flat

Guitar 1///////////////////////////////////

Intro (00:00  00:19)

Eb|---------------------------|
Bb|---------------------------|
Gb|-7h9-9br-7h9-9br-7h9-9br---| x2 
Db|---------------------------|
Ab|---------------------------|
Eb|---------------------------|

Eb|-------------------------------------------|
Bb|-------------------------------------------|
Gb|-7h9-9br-7h9-9br-7h9-9b9b9b9b-9b9b9b9b9b---|
Db|-------------------------------------------|
Ab|-------------------------------------------|
Eb|-------------------------------------------|

Eb|---------------------------|
Bb|---------------------------|
Gb|-7h9-9br-7h9-9br-7h9-9br---| x2 
Db|---------------------------|
Ab|---------------------------|
Eb|---------------------------|

Eb|-------------------------------------------|
Bb|-------------------------------------------|
Gb|-7h9-9br-7h9-9br-7h9-9b9b9b9b-9b9b9b9b9b---|
Db|-------------------------------------------|
Ab|-------------------------------------------|
Eb|-------------------------------------------|

Intro 2 (00:19  00:38)

Eb|-------------------------|
Bb|-------------------------|
Gb|-------------------------| x2
Db|-------------------------|
Ab|-------------------------|
Eb|-0h1-111-0h1-111-0h1-1---|

Eb|---------------------------------------|
Bb|---------------------------------------|
Gb|-----------------------777777-999999---| 
Db|-----------------------xxxxxx-xxxxxx---|
Ab|-----------------------555555-777777---|
Eb|-0h1-111-0h1-111-0h1-1-----------------|

Eb|-------------------------|
Bb|-------------------------|
Gb|-------------------------| x2
Db|-------------------------|
Ab|-------------------------|
Eb|-0h1-111-0h1-111-0h1-1---|

Eb|---------------------------------------|
Bb|---------------------------------------|
Gb|-----------------------777777-999999---| 
Db|-----------------------xxxxxx-xxxxxx---|
Ab|-----------------------555555-777777---|
Eb|-0h1-111-0h1-111-0h1-1-----------------|

Verse (00:38  01:19)

Eb|---------------------------|
Bb|---------------------------|
Gb|-7h9-9br-7h9-9br-7h9-9br---| x2 
Db|---------------------------|
Ab|---------------------------|
Eb|---------------------------|

Eb|-------------------------------------------|
Bb|-------------------------------------------|
Gb|-7h9-9br-7h9-9br-7h9-9b9b9b9b-9b9b9b9b9b---|
Db|-------------------------------------------|
Ab|-------------------------------------------|
Eb|-------------------------------------------|

Eb|---------------------------|
Bb|---------------------------|
Gb|-7h9-9br-7h9-9br-7h9-9br---| x2 
Db|---------------------------|
Ab|---------------------------|
Eb|---------------------------|

Eb|-------------------------------------------|
Bb|-------------------------------------------|
Gb|-7h9-9br-7h9-9br-7h9-9b9b9b9b-9b9b9b9b9b---|
Db|-------------------------------------------|
Ab|-------------------------------------------|
Eb|-------------------------------------------|

Eb|-------------------------|
Bb|-------------------------|
Gb|-------------------------| x2
Db|-------------------------|
Ab|-------------------------|
Eb|-0h1-111-0h1-111-0h1-1---|

Eb|---------------------------------------|
Bb|---------------------------------------|
Gb|-----------------------777777-999999---| 
Db|-----------------------xxxxxx-xxxxxx---|
Ab|-----------------------555555-777777---|
Eb|-0h1-111-0h1-111-0h1-1-----------------|

Eb|-------------------------|
Bb|-------------------------|
Gb|-------------------------| x2
Db|-------------------------|
Ab|-------------------------|
Eb|-0h1-111-0h1-111-0h1-1---|

Eb|---------------------------------------|
Bb|---------------------------------------|
Gb|-----------------------777777-999999---| 
Db|-----------------------xxxxxx-xxxxxx---|
Ab|-----------------------555555-777777---|
Eb|-0h1-111-0h1-111-0h1-1-----------------|

Verse 2 (01:19  01:39)

Eb|-----------------------|
Bb|-----------------------|
Gb|-9b9b9b9b-9b9b9b9b9b---|
Db|-----------------------|
Ab|-----------------------|
Eb|-----------------------|

Eb|---------------------------|
Bb|---------------------------|
Gb|-7h9-9br-7h9-9br-7h9-9br---| x2 
Db|---------------------------|
Ab|---------------------------|
Eb|---------------------------|

Eb|-------------------------------------------|
Bb|-------------------------------------------|
Gb|-7h9-9br-7h9-9br-7h9-9b9b9b9b-9b9b9b9b9b---|
Db|-------------------------------------------|
Ab|-------------------------------------------|
Eb|-------------------------------------------|

Eb|---------------------------|
Bb|---------------------------|
Gb|-7h9-9br-7h9-9br-7h9-9br---| x2 
Db|---------------------------|
Ab|---------------------------|
Eb|---------------------------|

Eb|-------------------------------------------|
Bb|-------------------------------------------|
Gb|-7h9-9br-7h9-9br-7h9-9b9b9b9b-9b9b9b9b9b---|
Db|-------------------------------------------|
Ab|-------------------------------------------|
Eb|-------------------------------------------|

Chorus (01:39  01:58)

Eb|----------------------------------------|
Bb|----------------------------------------|
Gb|----------------------------------------|
Db|-33333333-22222222-55555555-333333333---|
Ab|-33333333-22222222-55555555-333333333---|
Eb|-11111111-00000000-33333333-111111111---|

Eb|----------------------------------------|
Bb|----------------------------------------|
Gb|----------------------------------------|
Db|-33333333-22222222-55555555-333332222---|
Ab|-33333333-22222222-55555555-333332222---|
Eb|-11111111-00000000-33333333-111110000---|

Interlude (01:58 - 2:08)

Eb|---------------------------|
Bb|---------------------------|
Gb|-7h9-9br-7h9-9br-7h9-9br---| x2 
Db|---------------------------|
Ab|---------------------------|
Eb|---------------------------|

Eb|-------------------------------------------|
Bb|-------------------------------------------|
Gb|-7h9-9br-7h9-9br-7h9-9b9b9b9b-9b9b9b9b9b---|
Db|-------------------------------------------|
Ab|-------------------------------------------|
Eb|-------------------------------------------|

Verse 3 (02:08  02:26)

Eb|-------------------------|
Bb|-------------------------|
Gb|-------------------------| x2
Db|-------------------------|
Ab|-------------------------|
Eb|-0h1-111-0h1-111-0h1-1---|

Eb|---------------------------------------|
Bb|---------------------------------------|
Gb|-----------------------777777-999999---| 
Db|-----------------------xxxxxx-xxxxxx---|
Ab|-----------------------555555-777777---|
Eb|-0h1-111-0h1-111-0h1-1-----------------|

Eb|-------------------------|
Bb|-------------------------|
Gb|-------------------------| x2
Db|-------------------------|
Ab|-------------------------|
Eb|-0h1-111-0h1-111-0h1-1---|

Eb|---------------------------------------|
Bb|---------------------------------------|
Gb|-----------------------777777-999999---| 
Db|-----------------------xxxxxx-xxxxxx---|
Ab|-----------------------555555-777777---|
Eb|-0h1-111-0h1-111-0h1-1-----------------|

Bridge (02:26  02:45)

N/A

Chorus 2 (02:45  03:04)

Eb|----------------------------------------|
Bb|----------------------------------------|
Gb|----------------------------------------|
Db|-33333333-22222222-55555555-333333333---|
Ab|-33333333-22222222-55555555-333333333---|
Eb|-11111111-00000000-33333333-111111111---|

Eb|----------------------------------------|
Bb|----------------------------------------|
Gb|----------------------------------------|
Db|-33333333-22222222-55555555-333332222---|
Ab|-33333333-22222222-55555555-333332222---|
Eb|-11111111-00000000-33333333-111110000---|
[ Tab from: http://www.guitaretab.com/a/alexisonfire/146809.html ]
Outro (03:04  03:31)

Eb|----------------------------------------|
Bb|----------------------------------------|
Gb|----------------------------------------| x2 
Db|-33333333-22222222-55555555-333333333---|
Ab|-33333333-22222222-55555555-333333333---|
Eb|-11111111-00000000-33333333-111111111---|

Guitar 2///////////////////////////////////

Intro (00:00  00:19)

Eb|-----------------------------------------|
Bb|-----------------------------------------|
Gb|-----------------------------------------|
Db|-2---2-------2---2---3-3-3-33-5-5-5-55---|
Ab|-2---2-------2---2---3-3-3-33-5-5-5-55---|
Eb|-0---0-------0---0---1-1-1-11-3-3-3-33---|

Intro 2 (00:19  00:38)

Eb|-------------------------|
Bb|-------------------------|
Gb|-------------------------| x2
Db|-------------------------|
Ab|-------------------------|
Eb|-0h1-111-0h1-111-0h1-1---|

Eb|-------------------------------------------|
Bb|-------------------------------------------|
Gb|-------------------------------------------| 
Db|-----------------------3-3-3-3-3-5-5-5-5---|
Ab|-----------------------3-3-3-3-3-5-5-5-5---|
Eb|-0h1-111-0h1-111-0h1-1-1-1-1-1-1-3-3-3-3---|

Eb|-------------------------|
Bb|-------------------------|
Gb|-------------------------| x2
Db|-------------------------|
Ab|-------------------------|
Eb|-0h1-111-0h1-111-0h1-1---|

Eb|-------------------------------------------|
Bb|-------------------------------------------|
Gb|-------------------------------------------| 
Db|-----------------------3-3-3-3-3-5-5-5-5---|
Ab|-----------------------3-3-3-3-3-5-5-5-5---|
Eb|-0h1-111-0h1-111-0h1-1-1-1-1-1-1-3-3-3-3---|

Verse (00:38  01:19)

Eb|-------------------|
Bb|-------------------|
Gb|-------------------| x2 
Db|-3-3-3-3-3-3-3-3---|
Ab|-3-3-3-3-3-3-3-3---|
Eb|-1-1-1-1-1-1-1-1---|

Eb|-------------------------|
Bb|-------------------------|
Gb|-------------------------| x2
Db|-------------------------|
Ab|-------------------------|
Eb|-0h1-111-0h1-111-0h1-1---|

Eb|-------------------------------------------|
Bb|-------------------------------------------|
Gb|-------------------------------------------| 
Db|-----------------------3-3-3-3-3-5-5-5-5---|
Ab|-----------------------3-3-3-3-3-5-5-5-5---|
Eb|-0h1-111-0h1-111-0h1-1-1-1-1-1-1-3-3-3-3---|

Eb|-------------------------|
Bb|-------------------------|
Gb|-------------------------| x2
Db|-------------------------|
Ab|-------------------------|
Eb|-0h1-111-0h1-111-0h1-1---|

Eb|-------------------------------------------|
Bb|-------------------------------------------|
Gb|-------------------------------------------| 
Db|-----------------------3-3-3-3-3-5-5-5-5---|
Ab|-----------------------3-3-3-3-3-5-5-5-5---|
Eb|-0h1-111-0h1-111-0h1-1-1-1-1-1-1-3-3-3-3---|

Verse 2 (01:19  01:39)

Eb|-------------------|
Bb|-------------------|
Gb|-------------------|
Db|-3-3-3-3-3-3-3-3---|
Ab|-3-3-3-3-3-3-3-3---|
Eb|-1-1-1-1-1-1-1-1---|

Eb|----------------------------------------|
Bb|----------------------------------------|
Gb|-101010-99---99-101010-99---101010-99---|
Db|-x-x-x--xx---xx-x-x-x--xx---x-x-x--xx---|
Ab|-8-8-8--77---77-8-8-8--77---8-8-8--77---|
Eb|----------------------------------------|

Eb|-------------------|
Bb|-------------------|
Gb|-------------------|
Db|-3-3-3-3-3-3-3-3---|
Ab|-3-3-3-3-3-3-3-3---|
Eb|-1-1-1-1-1-1-1-1---|

Eb|----------------------------------------|
Bb|----------------------------------------|
Gb|-101010-99---99-101010-99---101010-99---|
Db|-x-x-x--xx---xx-x-x-x--xx---x-x-x--xx---|
Ab|-8-8-8--77---77-8-8-8--77---8-8-8--77---|
Eb|----------------------------------------|

Eb|-------------------|
Bb|-------------------|
Gb|-------------------| 
Db|-3-3-3-3-3-3-3-3---|
Ab|-3-3-3-3-3-3-3-3---|
Eb|-1-1-1-1-1-1-1-1---|

Chorus (01:39  01:58)

Eb|----------------------------------------------|
Bb|----------------------------------------------|
Gb|-----9-------9-7--7/9---------12-9-9\7--7/9---|
Db|--77-----7/-------------7-/9------------------|
Ab|----------------------------------------------|
Eb|----------------------------------------------|

Eb|-------------------------------------|
Bb|-------------------------------------|
Gb|-99-9-99-9-9-9-99-9999999999999999---|
Db|-xx-x-xx-x-x-x-xx-xxxxxxxxxxxxxxxx---|
Ab|-77-7-77-7-7-7-77-7777777777777777---|
Eb|-------------------------------------| 
...... .. ..Palm mute  


Eb|------------------------------|
Bb|------------------------------|
Gb|-99-9-99-9-9-9-99-------------|
Db|-xx-x-xx-x-x-x-xx-333332222---|
Ab|-77-7-77-7-7-7-77-333332222---|
Eb|------------------111110000---| 
...... .. ..Palm mute  

Interlude (01:58 - 2:08)

Eb|-----------------------------|
Bb|-----------------------------|
Gb|-----------------------------|
Db|-2---2---3-3-3-33-5-5-5-55---|
Ab|-2---2---3-3-3-33-5-5-5-55---|
Eb|-0---0---1-1-1-11-3-3-3-33---|

Verse 3 (02:08  02:26)

Eb|-------------------------|
Bb|-------------------------|
Gb|-------------------------| x2
Db|-------------------------|
Ab|-------------------------|
Eb|-0h1-111-0h1-111-0h1-1---|

Eb|-------------------------------------------|
Bb|-------------------------------------------|
Gb|-------------------------------------------| 
Db|-----------------------3-3-3-3-3-5-5-5-5---|
Ab|-----------------------3-3-3-3-3-5-5-5-5---|
Eb|-0h1-111-0h1-111-0h1-1-1-1-1-1-1-3-3-3-3---|

Eb|-------------------------|
Bb|-------------------------|
Gb|-------------------------| x2
Db|-------------------------|
Ab|-------------------------|
Eb|-0h1-111-0h1-111-0h1-1---|

Eb|-------------------------------------------|
Bb|-------------------------------------------|
Gb|-------------------------------------------| 
Db|-----------------------3-3-3-3-3-5-5-5-5---|
Ab|-----------------------3-3-3-3-3-5-5-5-5---|
Eb|-0h1-111-0h1-111-0h1-1-1-1-1-1-1-3-3-3-3---|

Bridge (02:26  02:45)

N/A

Chorus 2 (02:45  03:04)

Eb|----------------------------------------------|
Bb|----------------------------------------------|
Gb|-----9-------9-7--7/9---------12-9-9\7--7/9---|
Db|--77-----7/-------------7-/9------------------|
Ab|----------------------------------------------|
Eb|----------------------------------------------|

Eb|-------------------------------------|
Bb|-------------------------------------|
Gb|-99-9-99-9-9-9-99-9999999999999999---|
Db|-xx-x-xx-x-x-x-xx-xxxxxxxxxxxxxxxx---|
Ab|-77-7-77-7-7-7-77-7777777777777777---|
Eb|-------------------------------------| 
...... .. ..Palm mute  


Eb|------------------------------|
Bb|------------------------------|
Gb|-99-9-99-9-9-9-99-------------|
Db|-xx-x-xx-x-x-x-xx-333332222---|
Ab|-77-7-77-7-7-7-77-333332222---|
Eb|------------------111110000---| 
...... .. ..Palm mute  

Outro (03:04  03:31)

Eb|----------------------------------------------|
Bb|----------------------------------------------|
Gb|-----9-------9-7--7/9---------12-9-9\7--7/9---|
Db|--77-----7/-------------7-/9------------------|
Ab|----------------------------------------------|
Eb|----------------------------------------------|

Eb|----------------------------------|
Bb|----------------------------------|
Gb|-99-9-99-9-9-9-99-99-9-99-9-9-9---|
Db|-xx-x-xx-x-x-x-xx-77-7-77-7-7-7---|
Ab|-77-7-77-7-7-7-77-----------------|
Eb|----------------------------------| 
...... .. .. .. ..Palm mute  

Eb|--------------------|
Bb|--------------------|
Gb|-99-9-99-9-9-9-99---|
Db|-xx-x-xx-x-x-x-xx---|
Ab|-77-7-77-7-7-7-77---|
Eb|--------------------| 
...... .. ..Palm mute  

Eb|-------------------------------|
Bb|-------------------------------|
Gb|-9999999999999999-7/9-9--7-----| 
Db|-xxxxxxxxxxxxxxxx----------7---|
Ab|-7777777777777777--------------|
Eb|-------------------------------|
Related for Crisis tab