Song name
# A B C D E F G H I J K L M N O P Q R S T U V W X Y Z

Alice In Chains - So Close tab

So Close

Alice in Chains


mudfly93@yahoo.com

like every chains song a half step down

Intro "BIG BIG MONEY!!!!"

G1 Main Riff
|---------------------------------|
|---------------------------------| X6
|------------------3-3---3--------|
|-------3-----2----3-3-3---3---3--|
|---------------1-----------------|
|---0-3---0-2----------------1----|
                                                            X3
G2
|-------------0--------|---------------------------0---------|
|---------6-----6---8--|------------------------6-----6---8--|
|-12/---7---7-----7----|----------------------7---7-----7----|
|-12/------------------|-----/5~-5~-5~-5~-5~-----------------|
|----------------------|-------------------------------------|
|----------------------|-------------------------------------|

|--------------------------------|
|--------------------------------|*slight pinch harmonic
|--7--7-6--5-3-3h5p3-5b*5*r5*--3-|
|--------------------------------|
|--------------------------------|
|--------------------------------|

Verse
G1
|---------------------------------|
|---------------------------------| X8
|------------------3-3---3--------|
|-------3-----2----3-3-3---3---3--|
|---------------1-----------------|
|---0-3---0-2----------------1----|

G2
|---------------------------0---------|
|------------------------6-----6---8--| X5
|----------------------7---7-----7----|
|-----/5~-5~-5~-5~-5~-----------------|
|-------------------------------------|
|-------------------------------------|

Chorus X2

G1
|-----------0--------------0--------------0--------------0-|
|-----------0--------------0--------------0--------------0-| 
|-----------3--------------3--------------1--------------1-|
|-2-3-4-4---4----2-3-4-4---4----4-3-2-2---2----4-3-2-2---2-|
|-2-3-4-4---4----2-3-4-4---4----4-3-2-2---2----4-3-2-2---2-|
|-0-1-2-2-2-2----0-1-2-2-2-2----2-1-0-0-0-0----2-1-0-0-0-0-|

G2 Chorus Fill
|-------------------|
|-------------------|X2
|---4h6-6-6-6p4-4---|
|-----------------6-|
|-------------------|
|-------------------|



G1
|---------------------------------|
|---------------------------------| 
|------------------3-3---3--------| X6
|-------3-----2----3-3-3---3---3--|
|---------------1-----------------|
|---0-3---0-2----------------1----|

G2
|-------------------------------------------0-------|
|---------------------------------------6-----6---8-|
|-------------------------------15\---7---7-----7---|
|-------------------------17\-----------------------|
|--------/14b/15b/16b\-x--15\-----------------------|
|--/12\--/12b/13b/14b\-x----------------------------|

|---------------------------0---------|
|------------------------6-----6---8--| X3
|----------------------7---7-----7----|
|-----/5~-5~-5~-5~-5~-----------------|
|-------------------------------------|
|-------------------------------------|

|---------------------------|
|-------------------8---7b--|
|--7--7-6--5-3-55/7---7-----|
|---------------------------|
|---------------------------|
|---------------------------|

Verse
G1
|---------------------------------|
|---------------------------------| X8
|------------------3-3---3--------|
|-------3-----2----3-3-3---3---3--|
|---------------1-----------------|
|---0-3---0-2----------------1----|

G2
|---------------------------0---------|
|------------------------6-----6---8--| X5
|----------------------7---7-----7----|
|-----/5~-5~-5~-5~-5~-----------------|
|-------------------------------------|
|-------------------------------------|

Chorus X2

G1
|-----------0--------------0--------------0--------------0-|
|-----------0--------------0--------------0--------------0-| 
|-----------3--------------3--------------1--------------1-|
|-2-3-4-4---4----2-3-4-4---4----4-3-2-2---2----4-3-2-2---2-|
|-2-3-4-4---4----2-3-4-4---4----4-3-2-2---2----4-3-2-2---2-|
|-0-1-2-2-2-2----0-1-2-2-2-2----2-1-0-0-0-0----2-1-0-0-0-0-|

G2 Chorus Fill
|-------------------|
|-------------------|X2
|---4h6-6-6-6p4-4---|
|-----------------6-|
|-------------------|
|-------------------|


|---------------------------------------|
|---------------------------------------|
|---------------------------------------|
|-----------x\---x----------------------|
|-/x\--/x---x\---x------/17brbrbrbrbrbr-|
|-/x\--/x-----------x/------------------|

Outro
|-------0----------------------|
|---6-x---6-6x6x6x8xx6---xx/10-|
|-7-7-x---7-7x7x7x7xx7-7-xx/9--|
|------------------------------|
|------------------------------|
|------------------------------|
Tap to rate this tab
 
# A B C D E F G H I J K L M N O P Q R S T U V W X Y Z