Song name
# A B C D E F G H I J K L M N O P Q R S T U V W X Y Z

Alien Ant Farm - Crickets tab

Alien Ant Farm - 'Crickets'
From 'Up in the Attic'
Standard Tuning
Tabbed by jjhand



Intro :
   D                        Bm
E|-2--2--2--2--2--2--2----|-2--2--2--2--2--2--2----|
B|-3--3--3--3--3--3--3----|-3--3--3--3--3--3--3----|
G|-2--2--2--2--2--2--2----|-4--4--4--4--4--4--4----|
D|------------------------|------------------------|
A|------------------------|------------------------|
E|------------------------|------------------------|

   Bb                        D
e|-1--1--1--1--1--1--1--1--|-2--2--2--2--2--2--2--2--|
B|-3--3--3--3--3--3--3--3--|-3--3--3--3--3--3--3--3--|
G|-3--3--3--3--3--3--3--3--|-2--2--2--2--2--2--2--2--|
D|-------------------------|-------------------------|
A|-------------------------|-------------------------|
E|-------------------------|-------------------------|



Clean Electric Intro Solo (Acoustic Intro Repeats)
E|-----------------|--------------|------10---9---|-----------------|
B|---------10---10-|-12V12--------|----10--10--10-|-12-10------10---|
G|-----9/11---11---|---V11--------|---------------|-------10h11-----|
D|-----------------|--------------|---------------|-----------------|
A|-----------------|--------------|---------------|-----------------|
E|-----------------|--------------|---------------|-----------------|

|---------------------|--------------|------------|--------x----|
|--------10-----------|--------------|------------|---------x---|
|---9/11----11-9h10h11|-(11)------11\|\7------7/9-|-9--------x--|
|---------------------|--------------|------------|-----------x-|
|---------------------|--------------|------------|-------------|
|---------------------|--------------|------------|-------------|




Verse - Play Acoustic Intro, but Electric Repeats:

|-------------------------|
|-------------------------|
|------------(2--2--2--2)-|
|-0--0--0--0--0--0--0--0--| all PM, add 2nd fret notes () before prechorus
|-------------------------|
|-------------------------|




Prechorus:
E|-----------------|---------------|---------------|---------------|
B|-----------------|---------------|---------------|---------------|
G|-----6---7p6-----|------6\4------|-----6---7p6---|-9-----8----8--|
D|-7-----------7---|-0-7-------7p6-|-7-----7-----7-|-7-------------|
A|-----------------|---------------|---------------|-------9--9----|
E|-----------------|---------------|---------------|---------------|

E|-----------------|---------------|---------------|-----------------|
B|-----------------|---------------|---------------|-----------------|
G|-----6---7p6-----|------6\4----4-|-6----7p6--4---|-7-7-7-7-7-7-7-7-|
D|-7-----------7---|-0-7-------7---|-------------7-|-7-7-7-7-7-7-7-7-|
A|-----------------|---------------|---------------|-5-5-5-5-5-5-5-5-|
E|-----------------|---------------|---------------|-----------------|



Chorus (very similar to this)
E|-----------------|-----------------|-----------------|-----------------|
B|-----------------|-----------------|-------------3---|-------------3---|
G|-6-6-6-2---4---7-|-6-6-6-2---4---7-|-6-6-6-2-----x-2-|-6-6-6-2-2---x-2-|
D|-0-0-0-0-0-0-0-0-|-0-0-0-0-0-0-0-0-|-0-0-0-0-0-0-0-0-|-0-0-0-0-0---0-0-|
A|-----------------|-----------------|-----------------|-----------------|
E|-----------------|-----------------|-----------------|-----------------|


E|-----------------|-----------------|-----------------|-----------------|
B|-------------3---|-------------3---|-----------------|-----------------|
G|-6-6-6-2---4-x-2-|-6-6-6-2---4-x-4-|-6-6-6-2-2---6-7-|-9-9-9-9-9-9-9-9-|
D|-0-0-0-0-0-0-0-0-|-0-0-0-0-0-0-0-0-|-0-0-0-0-0-0-0-0-|-0-0-0-0-0-0-0-0-|
A|-----------------|-----------------|-----------------|-----------------|
E|-----------------|-----------------|-----------------|-----------------|






Play Clean Electric Intro Solo Again



Verse 2: Played same as before



Verse 2 Lick (2:17)

E|--------------7----|--10----|
B|-----7---10-7---10-|-(10)---|
G|---7---7-----------|--------|
D|-------------------|--------|
A|-------------------|--------|
E|-------------------|--------|



Second lick :

E|------------------|-------------|-------------|-------------|
B|-------7---10__\7-|-(7)---------|-------------|-------------|
G|---7/9------------|-------------|---------9\7-|-(7)---------|
D|------------------|-------------|-------------|-------------|
A|------------------|-------------|-------------|-------------|
E|------------------|-------------|-------------|-------------|


|------------------17----|-14~~--|
|------15----17----------|-------|
|---16----16----16----16-|-------|
|------------------------|-------|
|------------------------|-------|
|------------------------|-------|



Play PreChorus Again


Play Chorus Again (2:56)


Break (3:13) - play 2x with low octave pedal & tremelo

                      G (guitar 2)                        A (Bass plays F#)
|-------------------|-----------------|-----------------|-----------------|
|-------------------|-3-3-3-3-3-3-3-3-|-----------------|-5-5-5-5-5-5-5-5-|
|-7-6---6\4----0----|-4-4-4-4-4-4-4-4-|-7-6---6\4----0--|-6-6-6-6-6-6-6-6-|
|-----7-------------|-5-5-5-5-5-5-5-5-|-----7-----------|-7-7-7-7-7-7-7-7-|
|-------------------|-----------------|-----------------|-----------------|
|-------------------|-----------------|-----------------|-----------------|

|-------------------|-----------------|-------------------|
|-------------------|-3-3-3-3-3-3-----|--5--5-5-5-5-5-5-5-|
|-7-6---6\4----0----|-4-4-4-4-4-4-----|--6--6-6-6-6-6-6-6-|
|-----7-------------|-5-5-5-5-5-5-5/7-|-(7)-7-7-7-7-7-7-7-| () is Guitar 1
|-------------------|-----------------|-------------------| Guitar 2 plays note
|-------------------|-----------------|-------------------| in chords



Play Prechorus Again, hold out ending chords (D5)

Play Chorus to end, end on Db (6th fret G string)
Tap to rate this tab
 
# A B C D E F G H I J K L M N O P Q R S T U V W X Y Z